ISO-10303-21;
HEADER;
FILE_DESCRIPTION (( 'STEP AP203' ),
    '1' );
FILE_NAME ('bj300-12080.STEP',
    '2021-10-24T23:51:27',
    ( '' ),
    ( '' ),
    'SwSTEP 2.0',
    'SolidWorks 2020',
    '' );
FILE_SCHEMA (( 'CONFIG_CONTROL_DESIGN' ));
ENDSEC;

DATA;
#1 = DIRECTION ( 'NONE',  ( 1.000000000000000000, 0.000000000000000000, 0.000000000000000000 ) ) ;
#2 = APPROVAL ( #64, 'UNSPECIFIED' ) ;
#3 = APPROVAL_ROLE ( '' ) ;
#4 = VECTOR ( 'NONE', #57, 1000.000000000000000 ) ;
#5 = LINE ( 'NONE', #110, #284 ) ;
#6 = ADVANCED_FACE ( 'NONE', ( #215 ), #216, .F. ) ;
#7 = PERSON_AND_ORGANIZATION_ROLE ( 'creator' ) ;
#8 = DIRECTION ( 'NONE',  ( 0.000000000000000000, 0.000000000000000000, 1.000000000000000000 ) ) ;
#9 = COORDINATED_UNIVERSAL_TIME_OFFSET ( 9, 0, .AHEAD. ) ;
#10 = ORIENTED_EDGE ( 'NONE', *, *, #273, .T. ) ;
#11 = VECTOR ( 'NONE', #173, 1000.000000000000000 ) ;
#12 = ORIENTED_EDGE ( 'NONE', *, *, #319, .T. ) ;
#13 = CC_DESIGN_PERSON_AND_ORGANIZATION_ASSIGNMENT ( #287, #131, ( #248 ) ) ;
#14 = ORIENTED_EDGE ( 'NONE', *, *, #25, .F. ) ;
#15 = VERTEX_POINT ( 'NONE', #317 ) ;
#16 = VERTEX_POINT ( 'NONE', #90 ) ;
#17 = ORIENTED_EDGE ( 'NONE', *, *, #308, .T. ) ;
#18 = CC_DESIGN_APPROVAL ( #2, ( #277 ) ) ;
#19 = EDGE_LOOP ( 'NONE', ( #193, #246, #39, #272 ) ) ;
#20 = PRODUCT_DEFINITION ( 'UNKNOWN', '', #248, #77 ) ;
#21 = DIRECTION ( 'NONE',  ( 0.000000000000000000, 0.000000000000000000, -1.000000000000000000 ) ) ;
#22 = CARTESIAN_POINT ( 'NONE',  ( 0.000000000000000000, 0.000000000000000000, 80.00000000000000000 ) ) ;
#23 = DIRECTION ( 'NONE',  ( 1.000000000000000000, 0.000000000000000000, 0.000000000000000000 ) ) ;
#24 = CIRCLE ( 'NONE', #214, 10.00000000000000000 ) ;
#25 = EDGE_CURVE ( 'NONE', #245, #67, #220, .T. ) ;
#26 = CARTESIAN_POINT ( 'NONE',  ( -10.00000000000000000, 1.224646799147353256E-15, 80.00000000000000000 ) ) ;
#27 = PERSON_AND_ORGANIZATION ( #45, #141 ) ;
#28 = MANIFOLD_SOLID_BREP ( 'Imported1', #276 ) ;
#29 = DIRECTION ( 'NONE',  ( 1.000000000000000000, 0.000000000000000000, 0.000000000000000000 ) ) ;
#30 = LOCAL_TIME ( 8, 51, 27.00000000000000000, #285 ) ;
#31 = CALENDAR_DATE ( 2021, 25, 10 ) ;
#32 = FACE_OUTER_BOUND ( 'NONE', #19, .T. ) ;
#33 = CALENDAR_DATE ( 2021, 25, 10 ) ;
#34 = LINE ( 'NONE', #157, #169 ) ;
#35 = PERSON_AND_ORGANIZATION_ROLE ( 'design_owner' ) ;
#36 = EDGE_LOOP ( 'NONE', ( #91, #87, #318, #217 ) ) ;
#37 = AXIS2_PLACEMENT_3D ( 'NONE', #254, #153, #255 ) ;
#38 = ADVANCED_FACE ( 'NONE', ( #119, #95 ), #299, .F. ) ;
#39 = ORIENTED_EDGE ( 'NONE', *, *, #100, .F. ) ;
#40 = ORIENTED_EDGE ( 'NONE', *, *, #253, .T. ) ;
#41 = VERTEX_POINT ( 'NONE', #274 ) ;
#42 = ADVANCED_FACE ( 'NONE', ( #125 ), #49, .F. ) ;
#43 = CIRCLE ( 'NONE', #300, 20.00000000000000000 ) ;
#44 = CARTESIAN_POINT ( 'NONE',  ( 20.00000000000000000, 0.000000000000000000, 80.00000000000000000 ) ) ;
#45 = PERSON ( 'UNSPECIFIED', 'UNSPECIFIED', 'UNSPECIFIED', ('UNSPECIFIED'), ('UNSPECIFIED'), ('UNSPECIFIED') ) ;
#46 = DIRECTION ( 'NONE',  ( 1.000000000000000000, 0.000000000000000000, 0.000000000000000000 ) ) ;
#47 = CARTESIAN_POINT ( 'NONE',  ( 0.000000000000000000, 0.000000000000000000, 22.00000000000000000 ) ) ;
#48 =( NAMED_UNIT ( * ) SI_UNIT ( $, .STERADIAN. ) SOLID_ANGLE_UNIT ( ) );
#49 = CYLINDRICAL_SURFACE ( 'NONE', #146, 10.00000000000000000 ) ;
#50 = DIRECTION ( 'NONE',  ( 1.000000000000000000, 0.000000000000000000, 0.000000000000000000 ) ) ;
#51 = DIRECTION ( 'NONE',  ( 0.000000000000000000, 0.000000000000000000, 1.000000000000000000 ) ) ;
#52 = VERTEX_POINT ( 'NONE', #199 ) ;
#53 = CC_DESIGN_DATE_AND_TIME_ASSIGNMENT ( #85, #213, ( #277 ) ) ;
#54 = VECTOR ( 'NONE', #170, 1000.000000000000000 ) ;
#55 = CARTESIAN_POINT ( 'NONE',  ( 0.000000000000000000, 0.000000000000000000, 22.00000000000000000 ) ) ;
#56 = DIRECTION ( 'NONE',  ( -1.000000000000000000, 0.000000000000000000, 0.000000000000000000 ) ) ;
#57 = DIRECTION ( 'NONE',  ( 0.000000000000000000, 0.000000000000000000, 1.000000000000000000 ) ) ;
#58 = PERSON_AND_ORGANIZATION ( #45, #141 ) ;
#59 = CC_DESIGN_APPROVAL ( #66, ( #248 ) ) ;
#60 = CARTESIAN_POINT ( 'NONE',  ( 0.000000000000000000, 0.000000000000000000, 22.00000000000000000 ) ) ;
#61 = CIRCLE ( 'NONE', #292, 20.00000000000000000 ) ;
#62 = CC_DESIGN_APPROVAL ( #265, ( #20 ) ) ;
#63 = DATE_AND_TIME ( #88, #309 ) ;
#64 = APPROVAL_STATUS ( 'not_yet_approved' ) ;
#65 = DIRECTION ( 'NONE',  ( 1.000000000000000000, 0.000000000000000000, 0.000000000000000000 ) ) ;
#66 = APPROVAL ( #212, 'UNSPECIFIED' ) ;
#67 = VERTEX_POINT ( 'NONE', #326 ) ;
#68 = AXIS2_PLACEMENT_3D ( 'NONE', #289, #72, #56 ) ;
#69 = VERTEX_POINT ( 'NONE', #44 ) ;
#70 = EDGE_CURVE ( 'NONE', #154, #270, #43, .T. ) ;
#71 = ORIENTED_EDGE ( 'NONE', *, *, #319, .F. ) ;
#72 = DIRECTION ( 'NONE',  ( 0.000000000000000000, 0.000000000000000000, -1.000000000000000000 ) ) ;
#73 = ORIENTED_EDGE ( 'NONE', *, *, #172, .F. ) ;
#74 = CIRCLE ( 'NONE', #256, 7.000000000000000000 ) ;
#75 = DIRECTION ( 'NONE',  ( 0.000000000000000000, 0.000000000000000000, 1.000000000000000000 ) ) ;
#76 = CC_DESIGN_PERSON_AND_ORGANIZATION_ASSIGNMENT ( #312, #35, ( #226 ) ) ;
#77 = DESIGN_CONTEXT ( 'detailed design', #222, 'design' ) ;
#78 = CARTESIAN_POINT ( 'NONE',  ( 20.00000000000000000, 0.000000000000000000, 40.00000000000000000 ) ) ;
#79 = AXIS2_PLACEMENT_3D ( 'NONE', #195, #21, #328 ) ;
#80 = ADVANCED_FACE ( 'NONE', ( #171, #94 ), #148, .F. ) ;
#81 = LINE ( 'NONE', #78, #11 ) ;
#82 = PERSON_AND_ORGANIZATION ( #45, #141 ) ;
#83 = CIRCLE ( 'NONE', #114, 7.000000000000000000 ) ;
#84 = PERSON_AND_ORGANIZATION ( #45, #141 ) ;
#85 = DATE_AND_TIME ( #112, #132 ) ;
#86 = CYLINDRICAL_SURFACE ( 'NONE', #108, 20.00000000000000000 ) ;
#87 = ORIENTED_EDGE ( 'NONE', *, *, #198, .F. ) ;
#88 = CALENDAR_DATE ( 2021, 25, 10 ) ;
#89 = CARTESIAN_POINT ( 'NONE',  ( 0.000000000000000000, 0.000000000000000000, 40.00000000000000000 ) ) ;
#90 = CARTESIAN_POINT ( 'NONE',  ( -7.000000000000000000, 8.572527594031473190E-16, 22.00000000000000000 ) ) ;
#91 = ORIENTED_EDGE ( 'NONE', *, *, #308, .F. ) ;
#92 = ORIENTED_EDGE ( 'NONE', *, *, #100, .T. ) ;
#93 = ADVANCED_BREP_SHAPE_REPRESENTATION ( 'bj300-12080', ( #28, #207 ), #307 ) ;
#94 = FACE_OUTER_BOUND ( 'NONE', #140, .T. ) ;
#95 = FACE_BOUND ( 'NONE', #165, .T. ) ;
#96 = CARTESIAN_POINT ( 'NONE',  ( -10.00000000000000000, 1.224646799147353256E-15, 40.00000000000000000 ) ) ;
#97 = CARTESIAN_POINT ( 'NONE',  ( 0.000000000000000000, 0.000000000000000000, 40.00000000000000000 ) ) ;
#98 = ADVANCED_FACE ( 'NONE', ( #151, #282 ), #137, .F. ) ;
#99 = APPROVAL_PERSON_ORGANIZATION ( #266, #265, #310 ) ;
#100 = EDGE_CURVE ( 'NONE', #69, #52, #122, .T. ) ;
#101 = AXIS2_PLACEMENT_3D ( 'NONE', #180, #234, #109 ) ;
#102 = DIRECTION ( 'NONE',  ( 1.000000000000000000, 0.000000000000000000, 0.000000000000000000 ) ) ;
#103 = EDGE_LOOP ( 'NONE', ( #302, #73 ) ) ;
#104 = CARTESIAN_POINT ( 'NONE',  ( 0.000000000000000000, 0.000000000000000000, 80.00000000000000000 ) ) ;
#105 = CARTESIAN_POINT ( 'NONE',  ( -20.00000000000000000, 2.449293598294706513E-15, 0.000000000000000000 ) ) ;
#106 = DIRECTION ( 'NONE',  ( 0.000000000000000000, 0.000000000000000000, 1.000000000000000000 ) ) ;
#107 = APPLICATION_PROTOCOL_DEFINITION ( 'international standard', 'config_control_design', 1994, #222 ) ;
#108 = AXIS2_PLACEMENT_3D ( 'NONE', #130, #106, #236 ) ;
#109 = DIRECTION ( 'NONE',  ( 1.000000000000000000, 0.000000000000000000, 0.000000000000000000 ) ) ;
#110 = CARTESIAN_POINT ( 'NONE',  ( 10.00000000000000000, 0.000000000000000000, 40.00000000000000000 ) ) ;
#111 = COORDINATED_UNIVERSAL_TIME_OFFSET ( 9, 0, .AHEAD. ) ;
#112 = CALENDAR_DATE ( 2021, 25, 10 ) ;
#113 = EDGE_LOOP ( 'NONE', ( #227, #14 ) ) ;
#114 = AXIS2_PLACEMENT_3D ( 'NONE', #128, #201, #150 ) ;
#115 = CALENDAR_DATE ( 2021, 25, 10 ) ;
#116 = ORIENTED_EDGE ( 'NONE', *, *, #25, .T. ) ;
#117 = ORIENTED_EDGE ( 'NONE', *, *, #228, .T. ) ;
#118 = ORIENTED_EDGE ( 'NONE', *, *, #135, .T. ) ;
#119 = FACE_OUTER_BOUND ( 'NONE', #103, .T. ) ;
#120 = EDGE_CURVE ( 'NONE', #270, #52, #183, .T. ) ;
#121 = EDGE_CURVE ( 'NONE', #16, #247, #252, .T. ) ;
#122 = CIRCLE ( 'NONE', #159, 20.00000000000000000 ) ;
#123 = FACE_OUTER_BOUND ( 'NONE', #321, .T. ) ;
#124 = DIRECTION ( 'NONE',  ( 0.000000000000000000, 0.000000000000000000, 1.000000000000000000 ) ) ;
#125 = FACE_OUTER_BOUND ( 'NONE', #36, .T. ) ;
#126 = AXIS2_PLACEMENT_3D ( 'NONE', #239, #8, #1 ) ;
#127 = CARTESIAN_POINT ( 'NONE',  ( 0.000000000000000000, 0.000000000000000000, 40.00000000000000000 ) ) ;
#128 = CARTESIAN_POINT ( 'NONE',  ( 0.000000000000000000, 0.000000000000000000, 0.000000000000000000 ) ) ;
#129 = FACE_OUTER_BOUND ( 'NONE', #167, .T. ) ;
#130 = CARTESIAN_POINT ( 'NONE',  ( 0.000000000000000000, 0.000000000000000000, 40.00000000000000000 ) ) ;
#131 = PERSON_AND_ORGANIZATION_ROLE ( 'design_supplier' ) ;
#132 = LOCAL_TIME ( 8, 51, 27.00000000000000000, #9 ) ;
#133 = CARTESIAN_POINT ( 'NONE',  ( 0.000000000000000000, 0.000000000000000000, 0.000000000000000000 ) ) ;
#134 = CYLINDRICAL_SURFACE ( 'NONE', #126, 20.00000000000000000 ) ;
#135 = EDGE_CURVE ( 'NONE', #168, #16, #34, .T. ) ;
#136 = MECHANICAL_CONTEXT ( 'NONE', #200, 'mechanical' ) ;
#137 = PLANE ( 'NONE',  #68 ) ;
#138 = ORIENTED_EDGE ( 'NONE', *, *, #172, .T. ) ;
#139 = APPROVAL_ROLE ( '' ) ;
#140 = EDGE_LOOP ( 'NONE', ( #92, #117 ) ) ;
#141 = ORGANIZATION ( 'UNSPECIFIED', 'UNSPECIFIED', '' ) ;
#142 = EDGE_LOOP ( 'NONE', ( #203, #118, #293, #71 ) ) ;
#143 = CC_DESIGN_DATE_AND_TIME_ASSIGNMENT ( #240, #316, ( #20 ) ) ;
#144 = EDGE_LOOP ( 'NONE', ( #145, #249 ) ) ;
#145 = ORIENTED_EDGE ( 'NONE', *, *, #198, .T. ) ;
#146 = AXIS2_PLACEMENT_3D ( 'NONE', #97, #202, #46 ) ;
#147 = CARTESIAN_POINT ( 'NONE',  ( 0.000000000000000000, 0.000000000000000000, 0.000000000000000000 ) ) ;
#148 = PLANE ( 'NONE',  #79 ) ;
#149 = AXIS2_PLACEMENT_3D ( 'NONE', #297, #223, #251 ) ;
#150 = DIRECTION ( 'NONE',  ( 1.000000000000000000, 0.000000000000000000, 0.000000000000000000 ) ) ;
#151 = FACE_BOUND ( 'NONE', #178, .T. ) ;
#152 = ADVANCED_FACE ( 'NONE', ( #129 ), #86, .T. ) ;
#153 = DIRECTION ( 'NONE',  ( 0.000000000000000000, 0.000000000000000000, 1.000000000000000000 ) ) ;
#154 = VERTEX_POINT ( 'NONE', #279 ) ;
#155 = AXIS2_PLACEMENT_3D ( 'NONE', #127, #51, #301 ) ;
#156 = DIRECTION ( 'NONE',  ( 0.000000000000000000, 0.000000000000000000, 1.000000000000000000 ) ) ;
#157 = CARTESIAN_POINT ( 'NONE',  ( -7.000000000000000000, 8.572527594031473190E-16, 40.00000000000000000 ) ) ;
#158 = DIRECTION ( 'NONE',  ( 1.000000000000000000, 0.000000000000000000, 0.000000000000000000 ) ) ;
#159 = AXIS2_PLACEMENT_3D ( 'NONE', #225, #163, #259 ) ;
#160 = APPROVAL_PERSON_ORGANIZATION ( #27, #2, #139 ) ;
#161 = CARTESIAN_POINT ( 'NONE',  ( 7.000000000000000000, 0.000000000000000000, 0.000000000000000000 ) ) ;
#162 = PERSON_AND_ORGANIZATION_ROLE ( 'creator' ) ;
#163 = DIRECTION ( 'NONE',  ( 0.000000000000000000, 0.000000000000000000, 1.000000000000000000 ) ) ;
#164 = APPROVAL_DATE_TIME ( #63, #265 ) ;
#165 = EDGE_LOOP ( 'NONE', ( #10, #221 ) ) ;
#166 = UNCERTAINTY_MEASURE_WITH_UNIT (LENGTH_MEASURE( 1.000000000000000082E-05 ), #275, 'distance_accuracy_value', 'NONE');
#167 = EDGE_LOOP ( 'NONE', ( #294, #138, #218, #241 ) ) ;
#168 = VERTEX_POINT ( 'NONE', #184 ) ;
#169 = VECTOR ( 'NONE', #313, 1000.000000000000000 ) ;
#170 = DIRECTION ( 'NONE',  ( 0.000000000000000000, 0.000000000000000000, 1.000000000000000000 ) ) ;
#171 = FACE_BOUND ( 'NONE', #113, .T. ) ;
#172 = EDGE_CURVE ( 'NONE', #270, #154, #61, .T. ) ;
#173 = DIRECTION ( 'NONE',  ( 0.000000000000000000, 0.000000000000000000, 1.000000000000000000 ) ) ;
#174 = CC_DESIGN_SECURITY_CLASSIFICATION ( #277, ( #248 ) ) ;
#175 = CC_DESIGN_PERSON_AND_ORGANIZATION_ASSIGNMENT ( #263, #188, ( #277 ) ) ;
#176 = DIRECTION ( 'NONE',  ( 0.000000000000000000, 0.000000000000000000, 1.000000000000000000 ) ) ;
#177 = LINE ( 'NONE', #329, #196 ) ;
#178 = EDGE_LOOP ( 'NONE', ( #320, #269 ) ) ;
#179 =( NAMED_UNIT ( * ) PLANE_ANGLE_UNIT ( ) SI_UNIT ( $, .RADIAN. ) );
#180 = CARTESIAN_POINT ( 'NONE',  ( 0.000000000000000000, 0.000000000000000000, 40.00000000000000000 ) ) ;
#181 = CC_DESIGN_PERSON_AND_ORGANIZATION_ASSIGNMENT ( #84, #7, ( #20 ) ) ;
#182 = APPROVAL_DATE_TIME ( #305, #2 ) ;
#183 = LINE ( 'NONE', #311, #4 ) ;
#184 = CARTESIAN_POINT ( 'NONE',  ( -7.000000000000000000, 8.572527594031473190E-16, 0.000000000000000000 ) ) ;
#185 = ORIENTED_EDGE ( 'NONE', *, *, #194, .F. ) ;
#186 = APPROVAL_DATE_TIME ( #314, #66 ) ;
#187 = CIRCLE ( 'NONE', #231, 10.00000000000000000 ) ;
#188 = PERSON_AND_ORGANIZATION_ROLE ( 'classification_officer' ) ;
#189 = VERTEX_POINT ( 'NONE', #161 ) ;
#190 = ORIENTED_EDGE ( 'NONE', *, *, #237, .F. ) ;
#191 = ADVANCED_FACE ( 'NONE', ( #235 ), #264, .F. ) ;
#192 = AXIS2_PLACEMENT_3D ( 'NONE', #104, #204, #304 ) ;
#193 = ORIENTED_EDGE ( 'NONE', *, *, #70, .T. ) ;
#194 = EDGE_CURVE ( 'NONE', #41, #67, #5, .T. ) ;
#195 = CARTESIAN_POINT ( 'NONE',  ( 20.00000000000000000, 0.000000000000000000, 80.00000000000000000 ) ) ;
#196 = VECTOR ( 'NONE', #233, 1000.000000000000000 ) ;
#197 = AXIS2_PLACEMENT_3D ( 'NONE', #327, #124, #298 ) ;
#198 = EDGE_CURVE ( 'NONE', #41, #15, #187, .T. ) ;
#199 = CARTESIAN_POINT ( 'NONE',  ( -20.00000000000000000, 2.449293598294706513E-15, 80.00000000000000000 ) ) ;
#200 = APPLICATION_CONTEXT ( 'configuration controlled 3d designs of mechanical parts and assemblies' ) ;
#201 = DIRECTION ( 'NONE',  ( 0.000000000000000000, 0.000000000000000000, 1.000000000000000000 ) ) ;
#202 = DIRECTION ( 'NONE',  ( 0.000000000000000000, 0.000000000000000000, 1.000000000000000000 ) ) ;
#203 = ORIENTED_EDGE ( 'NONE', *, *, #258, .F. ) ;
#204 = DIRECTION ( 'NONE',  ( 0.000000000000000000, 0.000000000000000000, 1.000000000000000000 ) ) ;
#205 = LINE ( 'NONE', #96, #54 ) ;
#206 = DIRECTION ( 'NONE',  ( 0.000000000000000000, 0.000000000000000000, 1.000000000000000000 ) ) ;
#207 = AXIS2_PLACEMENT_3D ( 'NONE', #133, #208, #158 ) ;
#208 = DIRECTION ( 'NONE',  ( 0.000000000000000000, 0.000000000000000000, 1.000000000000000000 ) ) ;
#209 = DIRECTION ( 'NONE',  ( 0.000000000000000000, 0.000000000000000000, 1.000000000000000000 ) ) ;
#210 = APPLICATION_PROTOCOL_DEFINITION ( 'international standard', 'config_control_design', 1994, #200 ) ;
#211 = DIRECTION ( 'NONE',  ( 1.000000000000000000, 0.000000000000000000, 0.000000000000000000 ) ) ;
#212 = APPROVAL_STATUS ( 'not_yet_approved' ) ;
#213 = DATE_TIME_ROLE ( 'classification_date' ) ;
#214 = AXIS2_PLACEMENT_3D ( 'NONE', #55, #176, #23 ) ;
#215 = FACE_OUTER_BOUND ( 'NONE', #290, .T. ) ;
#216 = CYLINDRICAL_SURFACE ( 'NONE', #324, 10.00000000000000000 ) ;
#217 = ORIENTED_EDGE ( 'NONE', *, *, #250, .T. ) ;
#218 = ORIENTED_EDGE ( 'NONE', *, *, #291, .T. ) ;
#219 = ADVANCED_FACE ( 'NONE', ( #32 ), #134, .T. ) ;
#220 = CIRCLE ( 'NONE', #267, 10.00000000000000000 ) ;
#221 = ORIENTED_EDGE ( 'NONE', *, *, #258, .T. ) ;
#222 = APPLICATION_CONTEXT ( 'configuration controlled 3d designs of mechanical parts and assemblies' ) ;
#223 = DIRECTION ( 'NONE',  ( 0.000000000000000000, 0.000000000000000000, 1.000000000000000000 ) ) ;
#224 = CC_DESIGN_PERSON_AND_ORGANIZATION_ASSIGNMENT ( #82, #162, ( #248 ) ) ;
#225 = CARTESIAN_POINT ( 'NONE',  ( 0.000000000000000000, 0.000000000000000000, 80.00000000000000000 ) ) ;
#226 = PRODUCT ( 'bj300-12080', 'bj300-12080', '', ( #136 ) ) ;
#227 = ORIENTED_EDGE ( 'NONE', *, *, #250, .F. ) ;
#228 = EDGE_CURVE ( 'NONE', #52, #69, #315, .T. ) ;
#229 = CYLINDRICAL_SURFACE ( 'NONE', #155, 7.000000000000000000 ) ;
#230 = DIRECTION ( 'NONE',  ( 0.000000000000000000, 0.000000000000000000, 1.000000000000000000 ) ) ;
#231 = AXIS2_PLACEMENT_3D ( 'NONE', #283, #156, #262 ) ;
#232 = PRODUCT_RELATED_PRODUCT_CATEGORY ( 'detail', '', ( #226 ) ) ;
#233 = DIRECTION ( 'NONE',  ( 0.000000000000000000, 0.000000000000000000, 1.000000000000000000 ) ) ;
#234 = DIRECTION ( 'NONE',  ( 0.000000000000000000, 0.000000000000000000, 1.000000000000000000 ) ) ;
#235 = FACE_OUTER_BOUND ( 'NONE', #142, .T. ) ;
#236 = DIRECTION ( 'NONE',  ( 1.000000000000000000, 0.000000000000000000, 0.000000000000000000 ) ) ;
#237 = EDGE_CURVE ( 'NONE', #15, #41, #24, .T. ) ;
#238 = APPROVAL_STATUS ( 'not_yet_approved' ) ;
#239 = CARTESIAN_POINT ( 'NONE',  ( 0.000000000000000000, 0.000000000000000000, 40.00000000000000000 ) ) ;
#240 = DATE_AND_TIME ( #31, #244 ) ;
#241 = ORIENTED_EDGE ( 'NONE', *, *, #228, .F. ) ;
#242 = CIRCLE ( 'NONE', #37, 10.00000000000000000 ) ;
#243 = COORDINATED_UNIVERSAL_TIME_OFFSET ( 9, 0, .AHEAD. ) ;
#244 = LOCAL_TIME ( 8, 51, 27.00000000000000000, #111 ) ;
#245 = VERTEX_POINT ( 'NONE', #26 ) ;
#246 = ORIENTED_EDGE ( 'NONE', *, *, #120, .T. ) ;
#247 = VERTEX_POINT ( 'NONE', #278 ) ;
#248 = PRODUCT_DEFINITION_FORMATION_WITH_SPECIFIED_SOURCE ( 'ANY', '', #226, .NOT_KNOWN. ) ;
#249 = ORIENTED_EDGE ( 'NONE', *, *, #237, .T. ) ;
#250 = EDGE_CURVE ( 'NONE', #67, #245, #242, .T. ) ;
#251 = DIRECTION ( 'NONE',  ( 1.000000000000000000, 0.000000000000000000, 0.000000000000000000 ) ) ;
#252 = CIRCLE ( 'NONE', #260, 7.000000000000000000 ) ;
#253 = EDGE_CURVE ( 'NONE', #247, #16, #74, .T. ) ;
#254 = CARTESIAN_POINT ( 'NONE',  ( 0.000000000000000000, 0.000000000000000000, 80.00000000000000000 ) ) ;
#255 = DIRECTION ( 'NONE',  ( 1.000000000000000000, 0.000000000000000000, 0.000000000000000000 ) ) ;
#256 = AXIS2_PLACEMENT_3D ( 'NONE', #47, #303, #102 ) ;
#257 = DIRECTION ( 'NONE',  ( 0.000000000000000000, 0.000000000000000000, 1.000000000000000000 ) ) ;
#258 = EDGE_CURVE ( 'NONE', #168, #189, #83, .T. ) ;
#259 = DIRECTION ( 'NONE',  ( 1.000000000000000000, 0.000000000000000000, 0.000000000000000000 ) ) ;
#260 = AXIS2_PLACEMENT_3D ( 'NONE', #60, #257, #211 ) ;
#261 = COORDINATED_UNIVERSAL_TIME_OFFSET ( 9, 0, .AHEAD. ) ;
#262 = DIRECTION ( 'NONE',  ( 1.000000000000000000, 0.000000000000000000, 0.000000000000000000 ) ) ;
#263 = PERSON_AND_ORGANIZATION ( #45, #141 ) ;
#264 = CYLINDRICAL_SURFACE ( 'NONE', #101, 7.000000000000000000 ) ;
#265 = APPROVAL ( #238, 'UNSPECIFIED' ) ;
#266 = PERSON_AND_ORGANIZATION ( #45, #141 ) ;
#267 = AXIS2_PLACEMENT_3D ( 'NONE', #22, #230, #50 ) ;
#268 = APPROVAL_PERSON_ORGANIZATION ( #58, #66, #3 ) ;
#269 = ORIENTED_EDGE ( 'NONE', *, *, #121, .F. ) ;
#270 = VERTEX_POINT ( 'NONE', #105 ) ;
#271 = ORIENTED_EDGE ( 'NONE', *, *, #135, .F. ) ;
#272 = ORIENTED_EDGE ( 'NONE', *, *, #291, .F. ) ;
#273 = EDGE_CURVE ( 'NONE', #189, #168, #296, .T. ) ;
#274 = CARTESIAN_POINT ( 'NONE',  ( 10.00000000000000000, 0.000000000000000000, 22.00000000000000000 ) ) ;
#275 =( LENGTH_UNIT ( ) NAMED_UNIT ( * ) SI_UNIT ( .MILLI., .METRE. ) );
#276 = CLOSED_SHELL ( 'NONE', ( #6, #219, #191, #98, #286, #38, #152, #80, #42 ) ) ;
#277 = SECURITY_CLASSIFICATION ( '', '', #281 ) ;
#278 = CARTESIAN_POINT ( 'NONE',  ( 7.000000000000000000, 0.000000000000000000, 22.00000000000000000 ) ) ;
#279 = CARTESIAN_POINT ( 'NONE',  ( 20.00000000000000000, 0.000000000000000000, 0.000000000000000000 ) ) ;
#280 = SHAPE_DEFINITION_REPRESENTATION ( #323, #93 ) ;
#281 = SECURITY_CLASSIFICATION_LEVEL ( 'unclassified' ) ;
#282 = FACE_OUTER_BOUND ( 'NONE', #144, .T. ) ;
#283 = CARTESIAN_POINT ( 'NONE',  ( 0.000000000000000000, 0.000000000000000000, 22.00000000000000000 ) ) ;
#284 = VECTOR ( 'NONE', #206, 1000.000000000000000 ) ;
#285 = COORDINATED_UNIVERSAL_TIME_OFFSET ( 9, 0, .AHEAD. ) ;
#286 = ADVANCED_FACE ( 'NONE', ( #123 ), #229, .F. ) ;
#287 = PERSON_AND_ORGANIZATION ( #45, #141 ) ;
#288 = DIRECTION ( 'NONE',  ( 0.000000000000000000, 0.000000000000000000, 1.000000000000000000 ) ) ;
#289 = CARTESIAN_POINT ( 'NONE',  ( 10.00000000000000000, 0.000000000000000000, 22.00000000000000000 ) ) ;
#290 = EDGE_LOOP ( 'NONE', ( #190, #17, #116, #185 ) ) ;
#291 = EDGE_CURVE ( 'NONE', #154, #69, #81, .T. ) ;
#292 = AXIS2_PLACEMENT_3D ( 'NONE', #306, #209, #29 ) ;
#293 = ORIENTED_EDGE ( 'NONE', *, *, #121, .T. ) ;
#294 = ORIENTED_EDGE ( 'NONE', *, *, #120, .F. ) ;
#295 = ORIENTED_EDGE ( 'NONE', *, *, #273, .F. ) ;
#296 = CIRCLE ( 'NONE', #197, 7.000000000000000000 ) ;
#297 = CARTESIAN_POINT ( 'NONE',  ( 7.000000000000000000, 0.000000000000000000, 0.000000000000000000 ) ) ;
#298 = DIRECTION ( 'NONE',  ( 1.000000000000000000, 0.000000000000000000, 0.000000000000000000 ) ) ;
#299 = PLANE ( 'NONE',  #149 ) ;
#300 = AXIS2_PLACEMENT_3D ( 'NONE', #147, #75, #322 ) ;
#301 = DIRECTION ( 'NONE',  ( 1.000000000000000000, 0.000000000000000000, 0.000000000000000000 ) ) ;
#302 = ORIENTED_EDGE ( 'NONE', *, *, #70, .F. ) ;
#303 = DIRECTION ( 'NONE',  ( 0.000000000000000000, 0.000000000000000000, 1.000000000000000000 ) ) ;
#304 = DIRECTION ( 'NONE',  ( 1.000000000000000000, 0.000000000000000000, 0.000000000000000000 ) ) ;
#305 = DATE_AND_TIME ( #115, #325 ) ;
#306 = CARTESIAN_POINT ( 'NONE',  ( 0.000000000000000000, 0.000000000000000000, 0.000000000000000000 ) ) ;
#307 =( GEOMETRIC_REPRESENTATION_CONTEXT ( 3 ) GLOBAL_UNCERTAINTY_ASSIGNED_CONTEXT ( ( #166 ) ) GLOBAL_UNIT_ASSIGNED_CONTEXT ( ( #275, #179, #48 ) ) REPRESENTATION_CONTEXT ( 'NONE', 'WORKASPACE' ) );
#308 = EDGE_CURVE ( 'NONE', #15, #245, #205, .T. ) ;
#309 = LOCAL_TIME ( 8, 51, 27.00000000000000000, #261 ) ;
#310 = APPROVAL_ROLE ( '' ) ;
#311 = CARTESIAN_POINT ( 'NONE',  ( -20.00000000000000000, 2.449293598294706513E-15, 40.00000000000000000 ) ) ;
#312 = PERSON_AND_ORGANIZATION ( #45, #141 ) ;
#313 = DIRECTION ( 'NONE',  ( 0.000000000000000000, 0.000000000000000000, 1.000000000000000000 ) ) ;
#314 = DATE_AND_TIME ( #33, #30 ) ;
#315 = CIRCLE ( 'NONE', #192, 20.00000000000000000 ) ;
#316 = DATE_TIME_ROLE ( 'creation_date' ) ;
#317 = CARTESIAN_POINT ( 'NONE',  ( -10.00000000000000000, 1.224646799147353256E-15, 22.00000000000000000 ) ) ;
#318 = ORIENTED_EDGE ( 'NONE', *, *, #194, .T. ) ;
#319 = EDGE_CURVE ( 'NONE', #189, #247, #177, .T. ) ;
#320 = ORIENTED_EDGE ( 'NONE', *, *, #253, .F. ) ;
#321 = EDGE_LOOP ( 'NONE', ( #271, #295, #12, #40 ) ) ;
#322 = DIRECTION ( 'NONE',  ( 1.000000000000000000, 0.000000000000000000, 0.000000000000000000 ) ) ;
#323 = PRODUCT_DEFINITION_SHAPE ( 'NONE', 'NONE',  #20 ) ;
#324 = AXIS2_PLACEMENT_3D ( 'NONE', #89, #288, #65 ) ;
#325 = LOCAL_TIME ( 8, 51, 27.00000000000000000, #243 ) ;
#326 = CARTESIAN_POINT ( 'NONE',  ( 10.00000000000000000, 0.000000000000000000, 80.00000000000000000 ) ) ;
#327 = CARTESIAN_POINT ( 'NONE',  ( 0.000000000000000000, 0.000000000000000000, 0.000000000000000000 ) ) ;
#328 = DIRECTION ( 'NONE',  ( -1.000000000000000000, 0.000000000000000000, 0.000000000000000000 ) ) ;
#329 = CARTESIAN_POINT ( 'NONE',  ( 7.000000000000000000, 0.000000000000000000, 40.00000000000000000 ) ) ;
ENDSEC;
END-ISO-10303-21;
