ISO-10303-21;
HEADER;
FILE_DESCRIPTION (( 'STEP AP203' ),
    '1' );
FILE_NAME ('bj623-10004.STEP',
    '2021-10-24T23:57:32',
    ( '' ),
    ( '' ),
    'SwSTEP 2.0',
    'SolidWorks 2020',
    '' );
FILE_SCHEMA (( 'CONFIG_CONTROL_DESIGN' ));
ENDSEC;

DATA;
#1 = FACE_OUTER_BOUND ( 'NONE', #111, .T. ) ;
#2 = CALENDAR_DATE ( 2021, 25, 10 ) ;
#3 = CARTESIAN_POINT ( 'NONE',  ( -20.00000000000000000, 0.000000000000000000, 0.000000000000000000 ) ) ;
#4 = LOCAL_TIME ( 8, 57, 32.00000000000000000, #48 ) ;
#5 = DIRECTION ( 'NONE',  ( 0.000000000000000000, 0.000000000000000000, 1.000000000000000000 ) ) ;
#6 = PRODUCT ( 'bj623-10004', 'bj623-10004', '', ( #192 ) ) ;
#7 = PRODUCT_DEFINITION_SHAPE ( 'NONE', 'NONE',  #30 ) ;
#8 = AXIS2_PLACEMENT_3D ( 'NONE', #209, #45, #107 ) ;
#9 = CC_DESIGN_PERSON_AND_ORGANIZATION_ASSIGNMENT ( #194, #98, ( #6 ) ) ;
#10 = APPROVAL_DATE_TIME ( #183, #28 ) ;
#11 = DATE_TIME_ROLE ( 'classification_date' ) ;
#12 = APPLICATION_CONTEXT ( 'configuration controlled 3d designs of mechanical parts and assemblies' ) ;
#13 = CC_DESIGN_PERSON_AND_ORGANIZATION_ASSIGNMENT ( #171, #74, ( #178 ) ) ;
#14 =( GEOMETRIC_REPRESENTATION_CONTEXT ( 3 ) GLOBAL_UNCERTAINTY_ASSIGNED_CONTEXT ( ( #40 ) ) GLOBAL_UNIT_ASSIGNED_CONTEXT ( ( #154, #206, #225 ) ) REPRESENTATION_CONTEXT ( 'NONE', 'WORKASPACE' ) );
#15 = ORIENTED_EDGE ( 'NONE', *, *, #150, .T. ) ;
#16 = VECTOR ( 'NONE', #168, 1000.000000000000000 ) ;
#17 = EDGE_CURVE ( 'NONE', #38, #149, #122, .T. ) ;
#18 = FACE_OUTER_BOUND ( 'NONE', #33, .T. ) ;
#19 = CIRCLE ( 'NONE', #8, 20.00000000000000000 ) ;
#20 = ORIENTED_EDGE ( 'NONE', *, *, #176, .F. ) ;
#21 = EDGE_CURVE ( 'NONE', #84, #182, #88, .T. ) ;
#22 = PERSON_AND_ORGANIZATION ( #128, #197 ) ;
#23 = AXIS2_PLACEMENT_3D ( 'NONE', #95, #66, #145 ) ;
#24 = ORIENTED_EDGE ( 'NONE', *, *, #190, .F. ) ;
#25 = ADVANCED_FACE ( 'NONE', ( #218, #52 ), #215, .F. ) ;
#26 = AXIS2_PLACEMENT_3D ( 'NONE', #42, #5, #114 ) ;
#27 = PERSON_AND_ORGANIZATION ( #128, #197 ) ;
#28 = APPROVAL ( #135, 'UNSPECIFIED' ) ;
#29 = ORIENTED_EDGE ( 'NONE', *, *, #60, .F. ) ;
#30 = PRODUCT_DEFINITION ( 'UNKNOWN', '', #178, #78 ) ;
#31 = PERSON_AND_ORGANIZATION_ROLE ( 'creator' ) ;
#32 = LOCAL_TIME ( 8, 57, 32.00000000000000000, #99 ) ;
#33 = EDGE_LOOP ( 'NONE', ( #222, #29, #15, #201 ) ) ;
#34 = ADVANCED_FACE ( 'NONE', ( #1 ), #54, .T. ) ;
#35 = DIRECTION ( 'NONE',  ( 1.000000000000000000, 0.000000000000000000, 0.000000000000000000 ) ) ;
#36 = ORIENTED_EDGE ( 'NONE', *, *, #150, .F. ) ;
#37 = CIRCLE ( 'NONE', #116, 5.250000000000000000 ) ;
#38 = VERTEX_POINT ( 'NONE', #65 ) ;
#39 = SECURITY_CLASSIFICATION_LEVEL ( 'unclassified' ) ;
#40 = UNCERTAINTY_MEASURE_WITH_UNIT (LENGTH_MEASURE( 1.000000000000000082E-05 ), #154, 'distance_accuracy_value', 'NONE');
#41 = CARTESIAN_POINT ( 'NONE',  ( -20.00000000000000000, 0.000000000000000000, 10.00000000000000000 ) ) ;
#42 = CARTESIAN_POINT ( 'NONE',  ( 0.000000000000000000, 0.000000000000000000, 0.000000000000000000 ) ) ;
#43 = VECTOR ( 'NONE', #105, 1000.000000000000000 ) ;
#44 = ORIENTED_EDGE ( 'NONE', *, *, #83, .F. ) ;
#45 = DIRECTION ( 'NONE',  ( 0.000000000000000000, 0.000000000000000000, 1.000000000000000000 ) ) ;
#46 = ORIENTED_EDGE ( 'NONE', *, *, #17, .T. ) ;
#47 = AXIS2_PLACEMENT_3D ( 'NONE', #220, #124, #35 ) ;
#48 = COORDINATED_UNIVERSAL_TIME_OFFSET ( 9, 0, .AHEAD. ) ;
#49 = LINE ( 'NONE', #121, #240 ) ;
#50 = CARTESIAN_POINT ( 'NONE',  ( 0.000000000000000000, 0.000000000000000000, 0.000000000000000000 ) ) ;
#51 = ORIENTED_EDGE ( 'NONE', *, *, #190, .T. ) ;
#52 = FACE_BOUND ( 'NONE', #234, .T. ) ;
#53 = APPROVAL_PERSON_ORGANIZATION ( #221, #100, #148 ) ;
#54 = CYLINDRICAL_SURFACE ( 'NONE', #69, 20.00000000000000000 ) ;
#55 = DIRECTION ( 'NONE',  ( 1.000000000000000000, 0.000000000000000000, 0.000000000000000000 ) ) ;
#56 = ORIENTED_EDGE ( 'NONE', *, *, #17, .F. ) ;
#57 = DIRECTION ( 'NONE',  ( 0.000000000000000000, 0.000000000000000000, 1.000000000000000000 ) ) ;
#58 = ORIENTED_EDGE ( 'NONE', *, *, #176, .T. ) ;
#59 = ORIENTED_EDGE ( 'NONE', *, *, #60, .T. ) ;
#60 = EDGE_CURVE ( 'NONE', #149, #38, #205, .T. ) ;
#61 = CC_DESIGN_PERSON_AND_ORGANIZATION_ASSIGNMENT ( #126, #249, ( #178 ) ) ;
#62 = EDGE_CURVE ( 'NONE', #210, #84, #155, .T. ) ;
#63 = ORIENTED_EDGE ( 'NONE', *, *, #241, .F. ) ;
#64 = LOCAL_TIME ( 8, 57, 32.00000000000000000, #224 ) ;
#65 = CARTESIAN_POINT ( 'NONE',  ( 20.00000000000000000, 2.449293598294706513E-15, 10.00000000000000000 ) ) ;
#66 = DIRECTION ( 'NONE',  ( 0.000000000000000000, 0.000000000000000000, 1.000000000000000000 ) ) ;
#67 = DIRECTION ( 'NONE',  ( -1.000000000000000000, 0.000000000000000000, 0.000000000000000000 ) ) ;
#68 = DATE_TIME_ROLE ( 'creation_date' ) ;
#69 = AXIS2_PLACEMENT_3D ( 'NONE', #109, #93, #86 ) ;
#70 = ORIENTED_EDGE ( 'NONE', *, *, #196, .F. ) ;
#71 = DIRECTION ( 'NONE',  ( 0.000000000000000000, 0.000000000000000000, 1.000000000000000000 ) ) ;
#72 = ORIENTED_EDGE ( 'NONE', *, *, #62, .F. ) ;
#73 = COORDINATED_UNIVERSAL_TIME_OFFSET ( 9, 0, .AHEAD. ) ;
#74 = PERSON_AND_ORGANIZATION_ROLE ( 'design_supplier' ) ;
#75 = CIRCLE ( 'NONE', #132, 5.250000000000000000 ) ;
#76 = ORIENTED_EDGE ( 'NONE', *, *, #21, .F. ) ;
#77 = APPROVAL_STATUS ( 'not_yet_approved' ) ;
#78 = DESIGN_CONTEXT ( 'detailed design', #12, 'design' ) ;
#79 = PERSON_AND_ORGANIZATION ( #128, #197 ) ;
#80 = CLOSED_SHELL ( 'NONE', ( #90, #34, #179, #25, #184, #133 ) ) ;
#81 = ORIENTED_EDGE ( 'NONE', *, *, #62, .T. ) ;
#82 = COORDINATED_UNIVERSAL_TIME_OFFSET ( 9, 0, .AHEAD. ) ;
#83 = EDGE_CURVE ( 'NONE', #131, #153, #238, .T. ) ;
#84 = VERTEX_POINT ( 'NONE', #125 ) ;
#85 = CC_DESIGN_DATE_AND_TIME_ASSIGNMENT ( #104, #11, ( #152 ) ) ;
#86 = DIRECTION ( 'NONE',  ( -1.000000000000000000, 0.000000000000000000, 0.000000000000000000 ) ) ;
#87 = CC_DESIGN_APPROVAL ( #235, ( #30 ) ) ;
#88 = LINE ( 'NONE', #164, #16 ) ;
#89 = CARTESIAN_POINT ( 'NONE',  ( 5.250000000000000000, 6.429395695523604153E-16, 0.000000000000000000 ) ) ;
#90 = ADVANCED_FACE ( 'NONE', ( #189 ), #106, .F. ) ;
#91 = DIRECTION ( 'NONE',  ( 1.000000000000000000, 0.000000000000000000, 0.000000000000000000 ) ) ;
#92 = DIRECTION ( 'NONE',  ( -1.000000000000000000, 0.000000000000000000, 0.000000000000000000 ) ) ;
#93 = DIRECTION ( 'NONE',  ( 0.000000000000000000, 0.000000000000000000, -1.000000000000000000 ) ) ;
#94 = CALENDAR_DATE ( 2021, 25, 10 ) ;
#95 = CARTESIAN_POINT ( 'NONE',  ( 0.000000000000000000, 0.000000000000000000, 10.00000000000000000 ) ) ;
#96 = APPROVAL_DATE_TIME ( #246, #100 ) ;
#97 = LOCAL_TIME ( 8, 57, 32.00000000000000000, #82 ) ;
#98 = PERSON_AND_ORGANIZATION_ROLE ( 'design_owner' ) ;
#99 = COORDINATED_UNIVERSAL_TIME_OFFSET ( 9, 0, .AHEAD. ) ;
#100 = APPROVAL ( #244, 'UNSPECIFIED' ) ;
#101 = CC_DESIGN_PERSON_AND_ORGANIZATION_ASSIGNMENT ( #22, #151, ( #152 ) ) ;
#102 = EDGE_LOOP ( 'NONE', ( #174, #44 ) ) ;
#103 = AXIS2_PLACEMENT_3D ( 'NONE', #239, #112, #55 ) ;
#104 = DATE_AND_TIME ( #203, #64 ) ;
#105 = DIRECTION ( 'NONE',  ( 0.000000000000000000, 0.000000000000000000, -1.000000000000000000 ) ) ;
#106 = CYLINDRICAL_SURFACE ( 'NONE', #160, 5.250000000000000000 ) ;
#107 = DIRECTION ( 'NONE',  ( 1.000000000000000000, 0.000000000000000000, 0.000000000000000000 ) ) ;
#108 = CARTESIAN_POINT ( 'NONE',  ( 0.000000000000000000, 0.000000000000000000, 0.000000000000000000 ) ) ;
#109 = CARTESIAN_POINT ( 'NONE',  ( 0.000000000000000000, 0.000000000000000000, 10.00000000000000000 ) ) ;
#110 = ORIENTED_EDGE ( 'NONE', *, *, #196, .T. ) ;
#111 = EDGE_LOOP ( 'NONE', ( #56, #147, #167, #36 ) ) ;
#112 = DIRECTION ( 'NONE',  ( 0.000000000000000000, 0.000000000000000000, 1.000000000000000000 ) ) ;
#113 = DIRECTION ( 'NONE',  ( 0.000000000000000000, 0.000000000000000000, 1.000000000000000000 ) ) ;
#114 = DIRECTION ( 'NONE',  ( 1.000000000000000000, 0.000000000000000000, 0.000000000000000000 ) ) ;
#115 = CIRCLE ( 'NONE', #180, 5.250000000000000000 ) ;
#116 = AXIS2_PLACEMENT_3D ( 'NONE', #230, #113, #248 ) ;
#117 = ORIENTED_EDGE ( 'NONE', *, *, #241, .T. ) ;
#118 = EDGE_LOOP ( 'NONE', ( #59, #46 ) ) ;
#119 = VERTEX_POINT ( 'NONE', #89 ) ;
#120 = CARTESIAN_POINT ( 'NONE',  ( 0.000000000000000000, 0.000000000000000000, 10.00000000000000000 ) ) ;
#121 = CARTESIAN_POINT ( 'NONE',  ( 5.250000000000000000, 6.429395695523604153E-16, 10.00000000000000000 ) ) ;
#122 = CIRCLE ( 'NONE', #23, 20.00000000000000000 ) ;
#123 = CC_DESIGN_SECURITY_CLASSIFICATION ( #152, ( #178 ) ) ;
#124 = DIRECTION ( 'NONE',  ( 0.000000000000000000, 0.000000000000000000, 1.000000000000000000 ) ) ;
#125 = CARTESIAN_POINT ( 'NONE',  ( -5.250000000000000000, 0.000000000000000000, 10.00000000000000000 ) ) ;
#126 = PERSON_AND_ORGANIZATION ( #128, #197 ) ;
#127 = APPLICATION_PROTOCOL_DEFINITION ( 'international standard', 'config_control_design', 1994, #247 ) ;
#128 = PERSON ( 'UNSPECIFIED', 'UNSPECIFIED', 'UNSPECIFIED', ('UNSPECIFIED'), ('UNSPECIFIED'), ('UNSPECIFIED') ) ;
#129 = PLANE ( 'NONE',  #223 ) ;
#130 = CC_DESIGN_DATE_AND_TIME_ASSIGNMENT ( #170, #68, ( #30 ) ) ;
#131 = VERTEX_POINT ( 'NONE', #243 ) ;
#132 = AXIS2_PLACEMENT_3D ( 'NONE', #166, #71, #143 ) ;
#133 = ADVANCED_FACE ( 'NONE', ( #136 ), #213, .F. ) ;
#134 = PRODUCT_RELATED_PRODUCT_CATEGORY ( 'detail', '', ( #6 ) ) ;
#135 = APPROVAL_STATUS ( 'not_yet_approved' ) ;
#136 = FACE_OUTER_BOUND ( 'NONE', #233, .T. ) ;
#137 = DIRECTION ( 'NONE',  ( 1.000000000000000000, 0.000000000000000000, 0.000000000000000000 ) ) ;
#138 = CARTESIAN_POINT ( 'NONE',  ( -20.00000000000000000, 0.000000000000000000, 10.00000000000000000 ) ) ;
#139 = DIRECTION ( 'NONE',  ( 0.000000000000000000, 0.000000000000000000, -1.000000000000000000 ) ) ;
#140 = EDGE_LOOP ( 'NONE', ( #63, #72 ) ) ;
#141 = AXIS2_PLACEMENT_3D ( 'NONE', #50, #242, #158 ) ;
#142 = EDGE_LOOP ( 'NONE', ( #117, #51, #70, #76 ) ) ;
#143 = DIRECTION ( 'NONE',  ( 1.000000000000000000, 0.000000000000000000, 0.000000000000000000 ) ) ;
#144 = APPROVAL_PERSON_ORGANIZATION ( #27, #235, #175 ) ;
#145 = DIRECTION ( 'NONE',  ( 1.000000000000000000, 0.000000000000000000, 0.000000000000000000 ) ) ;
#146 = CALENDAR_DATE ( 2021, 25, 10 ) ;
#147 = ORIENTED_EDGE ( 'NONE', *, *, #207, .T. ) ;
#148 = APPROVAL_ROLE ( '' ) ;
#149 = VERTEX_POINT ( 'NONE', #138 ) ;
#150 = EDGE_CURVE ( 'NONE', #149, #153, #216, .T. ) ;
#151 = PERSON_AND_ORGANIZATION_ROLE ( 'classification_officer' ) ;
#152 = SECURITY_CLASSIFICATION ( '', '', #39 ) ;
#153 = VERTEX_POINT ( 'NONE', #3 ) ;
#154 =( LENGTH_UNIT ( ) NAMED_UNIT ( * ) SI_UNIT ( .MILLI., .METRE. ) );
#155 = CIRCLE ( 'NONE', #47, 5.250000000000000000 ) ;
#156 = AXIS2_PLACEMENT_3D ( 'NONE', #108, #57, #91 ) ;
#157 = DATE_AND_TIME ( #2, #32 ) ;
#158 = DIRECTION ( 'NONE',  ( 1.000000000000000000, 0.000000000000000000, 0.000000000000000000 ) ) ;
#159 = DIRECTION ( 'NONE',  ( 0.000000000000000000, 0.000000000000000000, 1.000000000000000000 ) ) ;
#160 = AXIS2_PLACEMENT_3D ( 'NONE', #169, #202, #67 ) ;
#161 = LOCAL_TIME ( 8, 57, 32.00000000000000000, #73 ) ;
#162 = CC_DESIGN_PERSON_AND_ORGANIZATION_ASSIGNMENT ( #79, #31, ( #30 ) ) ;
#163 = AXIS2_PLACEMENT_3D ( 'NONE', #120, #199, #236 ) ;
#164 = CARTESIAN_POINT ( 'NONE',  ( -5.250000000000000000, 0.000000000000000000, 10.00000000000000000 ) ) ;
#165 = CARTESIAN_POINT ( 'NONE',  ( 0.000000000000000000, 0.000000000000000000, 10.00000000000000000 ) ) ;
#166 = CARTESIAN_POINT ( 'NONE',  ( 0.000000000000000000, 0.000000000000000000, 0.000000000000000000 ) ) ;
#167 = ORIENTED_EDGE ( 'NONE', *, *, #83, .T. ) ;
#168 = DIRECTION ( 'NONE',  ( 0.000000000000000000, 0.000000000000000000, -1.000000000000000000 ) ) ;
#169 = CARTESIAN_POINT ( 'NONE',  ( 0.000000000000000000, 0.000000000000000000, 10.00000000000000000 ) ) ;
#170 = DATE_AND_TIME ( #94, #97 ) ;
#171 = PERSON_AND_ORGANIZATION ( #128, #197 ) ;
#172 = DIRECTION ( 'NONE',  ( 1.000000000000000000, 0.000000000000000000, 0.000000000000000000 ) ) ;
#173 = APPLICATION_PROTOCOL_DEFINITION ( 'international standard', 'config_control_design', 1994, #12 ) ;
#174 = ORIENTED_EDGE ( 'NONE', *, *, #211, .F. ) ;
#175 = APPROVAL_ROLE ( '' ) ;
#176 = EDGE_CURVE ( 'NONE', #119, #182, #37, .T. ) ;
#177 = DIRECTION ( 'NONE',  ( 0.000000000000000000, 0.000000000000000000, -1.000000000000000000 ) ) ;
#178 = PRODUCT_DEFINITION_FORMATION_WITH_SPECIFIED_SOURCE ( 'ANY', '', #6, .NOT_KNOWN. ) ;
#179 = ADVANCED_FACE ( 'NONE', ( #226, #227 ), #129, .T. ) ;
#180 = AXIS2_PLACEMENT_3D ( 'NONE', #186, #204, #172 ) ;
#181 = PERSON_AND_ORGANIZATION ( #128, #197 ) ;
#182 = VERTEX_POINT ( 'NONE', #214 ) ;
#183 = DATE_AND_TIME ( #198, #4 ) ;
#184 = ADVANCED_FACE ( 'NONE', ( #18 ), #245, .T. ) ;
#185 = MANIFOLD_SOLID_BREP ( 'Imported1', #80 ) ;
#186 = CARTESIAN_POINT ( 'NONE',  ( 0.000000000000000000, 0.000000000000000000, 10.00000000000000000 ) ) ;
#187 = VECTOR ( 'NONE', #177, 1000.000000000000000 ) ;
#188 = DIRECTION ( 'NONE',  ( 0.000000000000000000, 0.000000000000000000, -1.000000000000000000 ) ) ;
#189 = FACE_OUTER_BOUND ( 'NONE', #142, .T. ) ;
#190 = EDGE_CURVE ( 'NONE', #210, #119, #49, .T. ) ;
#191 = CARTESIAN_POINT ( 'NONE',  ( 5.250000000000000000, 6.429395695523604153E-16, 10.00000000000000000 ) ) ;
#192 = MECHANICAL_CONTEXT ( 'NONE', #247, 'mechanical' ) ;
#193 = LINE ( 'NONE', #232, #43 ) ;
#194 = PERSON_AND_ORGANIZATION ( #128, #197 ) ;
#195 = CARTESIAN_POINT ( 'NONE',  ( 0.000000000000000000, 0.000000000000000000, 10.00000000000000000 ) ) ;
#196 = EDGE_CURVE ( 'NONE', #182, #119, #75, .T. ) ;
#197 = ORGANIZATION ( 'UNSPECIFIED', 'UNSPECIFIED', '' ) ;
#198 = CALENDAR_DATE ( 2021, 25, 10 ) ;
#199 = DIRECTION ( 'NONE',  ( 0.000000000000000000, 0.000000000000000000, -1.000000000000000000 ) ) ;
#200 = AXIS2_PLACEMENT_3D ( 'NONE', #165, #139, #92 ) ;
#201 = ORIENTED_EDGE ( 'NONE', *, *, #211, .T. ) ;
#202 = DIRECTION ( 'NONE',  ( 0.000000000000000000, 0.000000000000000000, -1.000000000000000000 ) ) ;
#203 = CALENDAR_DATE ( 2021, 25, 10 ) ;
#204 = DIRECTION ( 'NONE',  ( 0.000000000000000000, 0.000000000000000000, 1.000000000000000000 ) ) ;
#205 = CIRCLE ( 'NONE', #103, 20.00000000000000000 ) ;
#206 =( NAMED_UNIT ( * ) PLANE_ANGLE_UNIT ( ) SI_UNIT ( $, .RADIAN. ) );
#207 = EDGE_CURVE ( 'NONE', #38, #131, #193, .T. ) ;
#208 = ADVANCED_BREP_SHAPE_REPRESENTATION ( 'bj623-10004', ( #185, #26 ), #14 ) ;
#209 = CARTESIAN_POINT ( 'NONE',  ( 0.000000000000000000, 0.000000000000000000, 0.000000000000000000 ) ) ;
#210 = VERTEX_POINT ( 'NONE', #191 ) ;
#211 = EDGE_CURVE ( 'NONE', #153, #131, #19, .T. ) ;
#212 = APPROVAL_ROLE ( '' ) ;
#213 = CYLINDRICAL_SURFACE ( 'NONE', #163, 5.250000000000000000 ) ;
#214 = CARTESIAN_POINT ( 'NONE',  ( -5.250000000000000000, 0.000000000000000000, 0.000000000000000000 ) ) ;
#215 = PLANE ( 'NONE',  #141 ) ;
#216 = LINE ( 'NONE', #41, #187 ) ;
#217 = SHAPE_DEFINITION_REPRESENTATION ( #7, #208 ) ;
#218 = FACE_OUTER_BOUND ( 'NONE', #102, .T. ) ;
#219 = APPROVAL_PERSON_ORGANIZATION ( #181, #28, #212 ) ;
#220 = CARTESIAN_POINT ( 'NONE',  ( 0.000000000000000000, 0.000000000000000000, 10.00000000000000000 ) ) ;
#221 = PERSON_AND_ORGANIZATION ( #128, #197 ) ;
#222 = ORIENTED_EDGE ( 'NONE', *, *, #207, .F. ) ;
#223 = AXIS2_PLACEMENT_3D ( 'NONE', #195, #159, #137 ) ;
#224 = COORDINATED_UNIVERSAL_TIME_OFFSET ( 9, 0, .AHEAD. ) ;
#225 =( NAMED_UNIT ( * ) SI_UNIT ( $, .STERADIAN. ) SOLID_ANGLE_UNIT ( ) );
#226 = FACE_OUTER_BOUND ( 'NONE', #118, .T. ) ;
#227 = FACE_BOUND ( 'NONE', #140, .T. ) ;
#228 = APPROVAL_DATE_TIME ( #157, #235 ) ;
#229 = CC_DESIGN_APPROVAL ( #100, ( #178 ) ) ;
#230 = CARTESIAN_POINT ( 'NONE',  ( 0.000000000000000000, 0.000000000000000000, 0.000000000000000000 ) ) ;
#231 = CC_DESIGN_APPROVAL ( #28, ( #152 ) ) ;
#232 = CARTESIAN_POINT ( 'NONE',  ( 20.00000000000000000, 2.449293598294706513E-15, 10.00000000000000000 ) ) ;
#233 = EDGE_LOOP ( 'NONE', ( #24, #81, #237, #20 ) ) ;
#234 = EDGE_LOOP ( 'NONE', ( #110, #58 ) ) ;
#235 = APPROVAL ( #77, 'UNSPECIFIED' ) ;
#236 = DIRECTION ( 'NONE',  ( -1.000000000000000000, 0.000000000000000000, 0.000000000000000000 ) ) ;
#237 = ORIENTED_EDGE ( 'NONE', *, *, #21, .T. ) ;
#238 = CIRCLE ( 'NONE', #156, 20.00000000000000000 ) ;
#239 = CARTESIAN_POINT ( 'NONE',  ( 0.000000000000000000, 0.000000000000000000, 10.00000000000000000 ) ) ;
#240 = VECTOR ( 'NONE', #188, 1000.000000000000000 ) ;
#241 = EDGE_CURVE ( 'NONE', #84, #210, #115, .T. ) ;
#242 = DIRECTION ( 'NONE',  ( 0.000000000000000000, 0.000000000000000000, 1.000000000000000000 ) ) ;
#243 = CARTESIAN_POINT ( 'NONE',  ( 20.00000000000000000, 2.449293598294706513E-15, 0.000000000000000000 ) ) ;
#244 = APPROVAL_STATUS ( 'not_yet_approved' ) ;
#245 = CYLINDRICAL_SURFACE ( 'NONE', #200, 20.00000000000000000 ) ;
#246 = DATE_AND_TIME ( #146, #161 ) ;
#247 = APPLICATION_CONTEXT ( 'configuration controlled 3d designs of mechanical parts and assemblies' ) ;
#248 = DIRECTION ( 'NONE',  ( 1.000000000000000000, 0.000000000000000000, 0.000000000000000000 ) ) ;
#249 = PERSON_AND_ORGANIZATION_ROLE ( 'creator' ) ;
ENDSEC;
END-ISO-10303-21;
