ISO-10303-21;
HEADER;
FILE_DESCRIPTION (( 'STEP AP203' ),
    '1' );
FILE_NAME ('bj300-10040.STEP',
    '2021-10-24T23:51:07',
    ( '' ),
    ( '' ),
    'SwSTEP 2.0',
    'SolidWorks 2020',
    '' );
FILE_SCHEMA (( 'CONFIG_CONTROL_DESIGN' ));
ENDSEC;

DATA;
#1 = PRODUCT ( 'bj300-10040', 'bj300-10040', '', ( #166 ) ) ;
#2 = DIRECTION ( 'NONE',  ( 1.000000000000000000, 0.000000000000000000, 0.000000000000000000 ) ) ;
#3 = ADVANCED_FACE ( 'NONE', ( #141, #239 ), #325, .F. ) ;
#4 = CYLINDRICAL_SURFACE ( 'NONE', #191, 16.00000000000000000 ) ;
#5 = ORIENTED_EDGE ( 'NONE', *, *, #285, .T. ) ;
#6 = UNCERTAINTY_MEASURE_WITH_UNIT (LENGTH_MEASURE( 1.000000000000000082E-05 ), #65, 'distance_accuracy_value', 'NONE');
#7 = FACE_OUTER_BOUND ( 'NONE', #66, .T. ) ;
#8 = ADVANCED_FACE ( 'NONE', ( #321 ), #274, .F. ) ;
#9 = DIRECTION ( 'NONE',  ( 0.000000000000000000, 0.000000000000000000, 1.000000000000000000 ) ) ;
#10 = ORIENTED_EDGE ( 'NONE', *, *, #280, .F. ) ;
#11 = FACE_OUTER_BOUND ( 'NONE', #64, .T. ) ;
#12 = APPROVAL_DATE_TIME ( #209, #322 ) ;
#13 = LOCAL_TIME ( 8, 51, 7.000000000000000000, #259 ) ;
#14 = ADVANCED_FACE ( 'NONE', ( #199 ), #171, .F. ) ;
#15 = VECTOR ( 'NONE', #50, 1000.000000000000000 ) ;
#16 = PERSON_AND_ORGANIZATION ( #314, #144 ) ;
#17 = EDGE_CURVE ( 'NONE', #313, #139, #36, .T. ) ;
#18 = ORIENTED_EDGE ( 'NONE', *, *, #252, .T. ) ;
#19 = PERSON_AND_ORGANIZATION ( #314, #144 ) ;
#20 = CIRCLE ( 'NONE', #56, 9.000000000000000000 ) ;
#21 = CARTESIAN_POINT ( 'NONE',  ( 5.500000000000000000, 0.000000000000000000, 0.000000000000000000 ) ) ;
#22 = DATE_AND_TIME ( #319, #303 ) ;
#23 = DIRECTION ( 'NONE',  ( 0.000000000000000000, 0.000000000000000000, 1.000000000000000000 ) ) ;
#24 = LOCAL_TIME ( 8, 51, 7.000000000000000000, #73 ) ;
#25 = CALENDAR_DATE ( 2021, 25, 10 ) ;
#26 = DIRECTION ( 'NONE',  ( 0.000000000000000000, 0.000000000000000000, 1.000000000000000000 ) ) ;
#27 = DIRECTION ( 'NONE',  ( 1.000000000000000000, 0.000000000000000000, 0.000000000000000000 ) ) ;
#28 = ORIENTED_EDGE ( 'NONE', *, *, #108, .T. ) ;
#29 = CARTESIAN_POINT ( 'NONE',  ( -16.00000000000000000, 1.959434878635765131E-15, 0.000000000000000000 ) ) ;
#30 = AXIS2_PLACEMENT_3D ( 'NONE', #100, #181, #97 ) ;
#31 = CARTESIAN_POINT ( 'NONE',  ( -16.00000000000000000, 1.959434878635765131E-15, 40.00000000000000000 ) ) ;
#32 = EDGE_LOOP ( 'NONE', ( #212, #35, #85, #256 ) ) ;
#33 = ORIENTED_EDGE ( 'NONE', *, *, #193, .F. ) ;
#34 = DIRECTION ( 'NONE',  ( 0.000000000000000000, 0.000000000000000000, 1.000000000000000000 ) ) ;
#35 = ORIENTED_EDGE ( 'NONE', *, *, #306, .T. ) ;
#36 = CIRCLE ( 'NONE', #76, 9.000000000000000000 ) ;
#37 = DIRECTION ( 'NONE',  ( 0.000000000000000000, 0.000000000000000000, 1.000000000000000000 ) ) ;
#38 = ORIENTED_EDGE ( 'NONE', *, *, #277, .T. ) ;
#39 = CC_DESIGN_SECURITY_CLASSIFICATION ( #130, ( #243 ) ) ;
#40 = DIRECTION ( 'NONE',  ( 0.000000000000000000, 0.000000000000000000, 1.000000000000000000 ) ) ;
#41 = ORIENTED_EDGE ( 'NONE', *, *, #324, .T. ) ;
#42 = CC_DESIGN_DATE_AND_TIME_ASSIGNMENT ( #93, #113, ( #130 ) ) ;
#43 = PERSON_AND_ORGANIZATION ( #314, #144 ) ;
#44 = CARTESIAN_POINT ( 'NONE',  ( -9.000000000000000000, 1.102182119232617714E-15, 40.00000000000000000 ) ) ;
#45 = DIRECTION ( 'NONE',  ( 0.000000000000000000, 0.000000000000000000, 1.000000000000000000 ) ) ;
#46 = COORDINATED_UNIVERSAL_TIME_OFFSET ( 9, 0, .AHEAD. ) ;
#47 = CARTESIAN_POINT ( 'NONE',  ( -5.500000000000000000, 6.735557395310442023E-16, 9.000000000000000000 ) ) ;
#48 = VECTOR ( 'NONE', #158, 1000.000000000000000 ) ;
#49 = COORDINATED_UNIVERSAL_TIME_OFFSET ( 9, 0, .AHEAD. ) ;
#50 = DIRECTION ( 'NONE',  ( 0.000000000000000000, 0.000000000000000000, 1.000000000000000000 ) ) ;
#51 = PERSON_AND_ORGANIZATION ( #314, #144 ) ;
#52 = CARTESIAN_POINT ( 'NONE',  ( 5.500000000000000000, 0.000000000000000000, 9.000000000000000000 ) ) ;
#53 = DIRECTION ( 'NONE',  ( 1.000000000000000000, 0.000000000000000000, 0.000000000000000000 ) ) ;
#54 = CARTESIAN_POINT ( 'NONE',  ( 0.000000000000000000, 0.000000000000000000, 0.000000000000000000 ) ) ;
#55 = VERTEX_POINT ( 'NONE', #47 ) ;
#56 = AXIS2_PLACEMENT_3D ( 'NONE', #195, #278, #298 ) ;
#57 = DIRECTION ( 'NONE',  ( 1.000000000000000000, 0.000000000000000000, 0.000000000000000000 ) ) ;
#58 = APPROVAL_ROLE ( '' ) ;
#59 = LINE ( 'NONE', #31, #48 ) ;
#60 = AXIS2_PLACEMENT_3D ( 'NONE', #140, #138, #192 ) ;
#61 = EDGE_LOOP ( 'NONE', ( #28, #255 ) ) ;
#62 = ORIENTED_EDGE ( 'NONE', *, *, #17, .F. ) ;
#63 = AXIS2_PLACEMENT_3D ( 'NONE', #270, #26, #245 ) ;
#64 = EDGE_LOOP ( 'NONE', ( #186, #235 ) ) ;
#65 =( LENGTH_UNIT ( ) NAMED_UNIT ( * ) SI_UNIT ( .MILLI., .METRE. ) );
#66 = EDGE_LOOP ( 'NONE', ( #213, #5, #308, #118 ) ) ;
#67 = CARTESIAN_POINT ( 'NONE',  ( 0.000000000000000000, 0.000000000000000000, 40.00000000000000000 ) ) ;
#68 = CALENDAR_DATE ( 2021, 25, 10 ) ;
#69 = CARTESIAN_POINT ( 'NONE',  ( 0.000000000000000000, 0.000000000000000000, 40.00000000000000000 ) ) ;
#70 = DIRECTION ( 'NONE',  ( 0.000000000000000000, 0.000000000000000000, 1.000000000000000000 ) ) ;
#71 = CARTESIAN_POINT ( 'NONE',  ( 9.000000000000000000, 0.000000000000000000, 9.000000000000000000 ) ) ;
#72 = CIRCLE ( 'NONE', #296, 16.00000000000000000 ) ;
#73 = COORDINATED_UNIVERSAL_TIME_OFFSET ( 9, 0, .AHEAD. ) ;
#74 = FACE_OUTER_BOUND ( 'NONE', #61, .T. ) ;
#75 = LINE ( 'NONE', #281, #214 ) ;
#76 = AXIS2_PLACEMENT_3D ( 'NONE', #197, #70, #294 ) ;
#77 = DIRECTION ( 'NONE',  ( 0.000000000000000000, 0.000000000000000000, 1.000000000000000000 ) ) ;
#78 = CARTESIAN_POINT ( 'NONE',  ( 0.000000000000000000, 0.000000000000000000, 40.00000000000000000 ) ) ;
#79 = ORIENTED_EDGE ( 'NONE', *, *, #236, .T. ) ;
#80 = DIRECTION ( 'NONE',  ( 0.000000000000000000, 0.000000000000000000, 1.000000000000000000 ) ) ;
#81 = VERTEX_POINT ( 'NONE', #71 ) ;
#82 = AXIS2_PLACEMENT_3D ( 'NONE', #230, #80, #2 ) ;
#83 = DIRECTION ( 'NONE',  ( 0.000000000000000000, 0.000000000000000000, -1.000000000000000000 ) ) ;
#84 = ADVANCED_FACE ( 'NONE', ( #147 ), #126, .F. ) ;
#85 = ORIENTED_EDGE ( 'NONE', *, *, #157, .T. ) ;
#86 = CARTESIAN_POINT ( 'NONE',  ( -5.500000000000000000, 6.735557395310442023E-16, 40.00000000000000000 ) ) ;
#87 = AXIS2_PLACEMENT_3D ( 'NONE', #299, #83, #315 ) ;
#88 =( GEOMETRIC_REPRESENTATION_CONTEXT ( 3 ) GLOBAL_UNCERTAINTY_ASSIGNED_CONTEXT ( ( #6 ) ) GLOBAL_UNIT_ASSIGNED_CONTEXT ( ( #65, #317, #234 ) ) REPRESENTATION_CONTEXT ( 'NONE', 'WORKASPACE' ) );
#89 = ORIENTED_EDGE ( 'NONE', *, *, #193, .T. ) ;
#90 = CC_DESIGN_PERSON_AND_ORGANIZATION_ASSIGNMENT ( #200, #297, ( #130 ) ) ;
#91 = APPROVAL_STATUS ( 'not_yet_approved' ) ;
#92 = EDGE_LOOP ( 'NONE', ( #33, #233 ) ) ;
#93 = DATE_AND_TIME ( #68, #24 ) ;
#94 = DIRECTION ( 'NONE',  ( 1.000000000000000000, 0.000000000000000000, 0.000000000000000000 ) ) ;
#95 = AXIS2_PLACEMENT_3D ( 'NONE', #272, #125, #329 ) ;
#96 = EDGE_CURVE ( 'NONE', #136, #225, #178, .T. ) ;
#97 = DIRECTION ( 'NONE',  ( 1.000000000000000000, 0.000000000000000000, 0.000000000000000000 ) ) ;
#98 = DIRECTION ( 'NONE',  ( 0.000000000000000000, 0.000000000000000000, 1.000000000000000000 ) ) ;
#99 = SECURITY_CLASSIFICATION_LEVEL ( 'unclassified' ) ;
#100 = CARTESIAN_POINT ( 'NONE',  ( 0.000000000000000000, 0.000000000000000000, 40.00000000000000000 ) ) ;
#101 = ADVANCED_FACE ( 'NONE', ( #149, #74 ), #222, .F. ) ;
#102 = AXIS2_PLACEMENT_3D ( 'NONE', #54, #254, #283 ) ;
#103 = CARTESIAN_POINT ( 'NONE',  ( 0.000000000000000000, 0.000000000000000000, 0.000000000000000000 ) ) ;
#104 = CC_DESIGN_PERSON_AND_ORGANIZATION_ASSIGNMENT ( #43, #218, ( #243 ) ) ;
#105 = LINE ( 'NONE', #282, #327 ) ;
#106 = CIRCLE ( 'NONE', #227, 5.500000000000000000 ) ;
#107 = ORIENTED_EDGE ( 'NONE', *, *, #17, .T. ) ;
#108 = EDGE_CURVE ( 'NONE', #81, #300, #20, .T. ) ;
#109 = CARTESIAN_POINT ( 'NONE',  ( 0.000000000000000000, 0.000000000000000000, 40.00000000000000000 ) ) ;
#110 = ORIENTED_EDGE ( 'NONE', *, *, #247, .T. ) ;
#111 = CIRCLE ( 'NONE', #82, 9.000000000000000000 ) ;
#112 = CIRCLE ( 'NONE', #288, 5.500000000000000000 ) ;
#113 = DATE_TIME_ROLE ( 'classification_date' ) ;
#114 = CYLINDRICAL_SURFACE ( 'NONE', #302, 16.00000000000000000 ) ;
#115 = SHAPE_DEFINITION_REPRESENTATION ( #154, #217 ) ;
#116 = PLANE ( 'NONE',  #87 ) ;
#117 = ORIENTED_EDGE ( 'NONE', *, *, #285, .F. ) ;
#118 = ORIENTED_EDGE ( 'NONE', *, *, #96, .F. ) ;
#119 = ORIENTED_EDGE ( 'NONE', *, *, #174, .F. ) ;
#120 = DIRECTION ( 'NONE',  ( 1.000000000000000000, 0.000000000000000000, 0.000000000000000000 ) ) ;
#121 = EDGE_LOOP ( 'NONE', ( #167, #79, #38, #163 ) ) ;
#122 = LINE ( 'NONE', #307, #189 ) ;
#123 = CARTESIAN_POINT ( 'NONE',  ( 9.000000000000000000, 0.000000000000000000, 9.000000000000000000 ) ) ;
#124 = APPROVAL_ROLE ( '' ) ;
#125 = DIRECTION ( 'NONE',  ( 0.000000000000000000, 0.000000000000000000, 1.000000000000000000 ) ) ;
#126 = CYLINDRICAL_SURFACE ( 'NONE', #63, 5.500000000000000000 ) ;
#127 = DATE_AND_TIME ( #25, #151 ) ;
#128 = CC_DESIGN_PERSON_AND_ORGANIZATION_ASSIGNMENT ( #51, #293, ( #168 ) ) ;
#129 = DIRECTION ( 'NONE',  ( -1.000000000000000000, 0.000000000000000000, 0.000000000000000000 ) ) ;
#130 = SECURITY_CLASSIFICATION ( '', '', #99 ) ;
#131 = CARTESIAN_POINT ( 'NONE',  ( 0.000000000000000000, 0.000000000000000000, 40.00000000000000000 ) ) ;
#132 = FACE_OUTER_BOUND ( 'NONE', #238, .T. ) ;
#133 = CARTESIAN_POINT ( 'NONE',  ( 16.00000000000000000, 0.000000000000000000, 40.00000000000000000 ) ) ;
#134 = VERTEX_POINT ( 'NONE', #52 ) ;
#135 = ORIENTED_EDGE ( 'NONE', *, *, #236, .F. ) ;
#136 = VERTEX_POINT ( 'NONE', #223 ) ;
#137 = AXIS2_PLACEMENT_3D ( 'NONE', #246, #220, #53 ) ;
#138 = DIRECTION ( 'NONE',  ( 0.000000000000000000, 0.000000000000000000, 1.000000000000000000 ) ) ;
#139 = VERTEX_POINT ( 'NONE', #44 ) ;
#140 = CARTESIAN_POINT ( 'NONE',  ( 0.000000000000000000, 0.000000000000000000, 0.000000000000000000 ) ) ;
#141 = FACE_OUTER_BOUND ( 'NONE', #318, .T. ) ;
#142 = VECTOR ( 'NONE', #40, 1000.000000000000000 ) ;
#143 = ORIENTED_EDGE ( 'NONE', *, *, #306, .F. ) ;
#144 = ORGANIZATION ( 'UNSPECIFIED', 'UNSPECIFIED', '' ) ;
#145 = DIRECTION ( 'NONE',  ( 1.000000000000000000, 0.000000000000000000, 0.000000000000000000 ) ) ;
#146 = DIRECTION ( 'NONE',  ( 1.000000000000000000, 0.000000000000000000, 0.000000000000000000 ) ) ;
#147 = FACE_OUTER_BOUND ( 'NONE', #215, .T. ) ;
#148 = LOCAL_TIME ( 8, 51, 7.000000000000000000, #46 ) ;
#149 = FACE_BOUND ( 'NONE', #92, .T. ) ;
#150 = DIRECTION ( 'NONE',  ( 1.000000000000000000, 0.000000000000000000, 0.000000000000000000 ) ) ;
#151 = LOCAL_TIME ( 8, 51, 7.000000000000000000, #49 ) ;
#152 = DIRECTION ( 'NONE',  ( 1.000000000000000000, 0.000000000000000000, 0.000000000000000000 ) ) ;
#153 = EDGE_CURVE ( 'NONE', #244, #320, #106, .T. ) ;
#154 = PRODUCT_DEFINITION_SHAPE ( 'NONE', 'NONE',  #168 ) ;
#155 = CARTESIAN_POINT ( 'NONE',  ( 0.000000000000000000, 0.000000000000000000, 0.000000000000000000 ) ) ;
#156 = ORIENTED_EDGE ( 'NONE', *, *, #263, .F. ) ;
#157 = EDGE_CURVE ( 'NONE', #55, #134, #316, .T. ) ;
#158 = DIRECTION ( 'NONE',  ( 0.000000000000000000, 0.000000000000000000, 1.000000000000000000 ) ) ;
#159 = CARTESIAN_POINT ( 'NONE',  ( -9.000000000000000000, 1.102182119232617714E-15, 9.000000000000000000 ) ) ;
#160 = ADVANCED_FACE ( 'NONE', ( #292 ), #202, .F. ) ;
#161 = ORIENTED_EDGE ( 'NONE', *, *, #277, .F. ) ;
#162 = CIRCLE ( 'NONE', #284, 9.000000000000000000 ) ;
#163 = ORIENTED_EDGE ( 'NONE', *, *, #324, .F. ) ;
#164 = CC_DESIGN_DATE_AND_TIME_ASSIGNMENT ( #127, #194, ( #168 ) ) ;
#165 = PERSON_AND_ORGANIZATION ( #314, #144 ) ;
#166 = MECHANICAL_CONTEXT ( 'NONE', #208, 'mechanical' ) ;
#167 = ORIENTED_EDGE ( 'NONE', *, *, #240, .F. ) ;
#168 = PRODUCT_DEFINITION ( 'UNKNOWN', '', #243, #261 ) ;
#169 = DATE_AND_TIME ( #248, #148 ) ;
#170 = CIRCLE ( 'NONE', #242, 16.00000000000000000 ) ;
#171 = CYLINDRICAL_SURFACE ( 'NONE', #30, 5.500000000000000000 ) ;
#172 = APPROVAL_PERSON_ORGANIZATION ( #16, #322, #58 ) ;
#173 = COORDINATED_UNIVERSAL_TIME_OFFSET ( 9, 0, .AHEAD. ) ;
#174 = EDGE_CURVE ( 'NONE', #304, #225, #170, .T. ) ;
#175 = DIRECTION ( 'NONE',  ( 0.000000000000000000, 0.000000000000000000, 1.000000000000000000 ) ) ;
#176 = AXIS2_PLACEMENT_3D ( 'NONE', #21, #98, #27 ) ;
#177 = APPROVAL_STATUS ( 'not_yet_approved' ) ;
#178 = LINE ( 'NONE', #276, #15 ) ;
#179 = CIRCLE ( 'NONE', #137, 5.500000000000000000 ) ;
#180 = APPROVAL_STATUS ( 'not_yet_approved' ) ;
#181 = DIRECTION ( 'NONE',  ( 0.000000000000000000, 0.000000000000000000, 1.000000000000000000 ) ) ;
#182 = APPROVAL ( #91, 'UNSPECIFIED' ) ;
#183 = APPROVAL_PERSON_ORGANIZATION ( #19, #182, #124 ) ;
#184 = DIRECTION ( 'NONE',  ( 0.000000000000000000, 0.000000000000000000, 1.000000000000000000 ) ) ;
#185 = ORIENTED_EDGE ( 'NONE', *, *, #252, .F. ) ;
#186 = ORIENTED_EDGE ( 'NONE', *, *, #295, .T. ) ;
#187 = DIRECTION ( 'NONE',  ( 1.000000000000000000, 0.000000000000000000, 0.000000000000000000 ) ) ;
#188 = PRODUCT_RELATED_PRODUCT_CATEGORY ( 'detail', '', ( #1 ) ) ;
#189 = VECTOR ( 'NONE', #268, 1000.000000000000000 ) ;
#190 = CARTESIAN_POINT ( 'NONE',  ( 0.000000000000000000, 0.000000000000000000, 40.00000000000000000 ) ) ;
#191 = AXIS2_PLACEMENT_3D ( 'NONE', #131, #207, #232 ) ;
#192 = DIRECTION ( 'NONE',  ( 1.000000000000000000, 0.000000000000000000, 0.000000000000000000 ) ) ;
#193 = EDGE_CURVE ( 'NONE', #134, #55, #179, .T. ) ;
#194 = DATE_TIME_ROLE ( 'creation_date' ) ;
#195 = CARTESIAN_POINT ( 'NONE',  ( 0.000000000000000000, 0.000000000000000000, 9.000000000000000000 ) ) ;
#196 = CC_DESIGN_APPROVAL ( #322, ( #130 ) ) ;
#197 = CARTESIAN_POINT ( 'NONE',  ( 0.000000000000000000, 0.000000000000000000, 40.00000000000000000 ) ) ;
#198 = AXIS2_PLACEMENT_3D ( 'NONE', #123, #201, #129 ) ;
#199 = FACE_OUTER_BOUND ( 'NONE', #32, .T. ) ;
#200 = PERSON_AND_ORGANIZATION ( #314, #144 ) ;
#201 = DIRECTION ( 'NONE',  ( 0.000000000000000000, 0.000000000000000000, -1.000000000000000000 ) ) ;
#202 = CYLINDRICAL_SURFACE ( 'NONE', #229, 9.000000000000000000 ) ;
#203 = ORIENTED_EDGE ( 'NONE', *, *, #108, .F. ) ;
#204 = CALENDAR_DATE ( 2021, 25, 10 ) ;
#205 = DIRECTION ( 'NONE',  ( 0.000000000000000000, 0.000000000000000000, 1.000000000000000000 ) ) ;
#206 = APPROVAL_PERSON_ORGANIZATION ( #290, #257, #273 ) ;
#207 = DIRECTION ( 'NONE',  ( 0.000000000000000000, 0.000000000000000000, 1.000000000000000000 ) ) ;
#208 = APPLICATION_CONTEXT ( 'configuration controlled 3d designs of mechanical parts and assemblies' ) ;
#209 = DATE_AND_TIME ( #204, #13 ) ;
#210 = EDGE_LOOP ( 'NONE', ( #135, #203, #41, #107 ) ) ;
#211 = CARTESIAN_POINT ( 'NONE',  ( 5.500000000000000000, 0.000000000000000000, 0.000000000000000000 ) ) ;
#212 = ORIENTED_EDGE ( 'NONE', *, *, #153, .F. ) ;
#213 = ORIENTED_EDGE ( 'NONE', *, *, #263, .T. ) ;
#214 = VECTOR ( 'NONE', #305, 1000.000000000000000 ) ;
#215 = EDGE_LOOP ( 'NONE', ( #143, #10, #110, #89 ) ) ;
#216 = AXIS2_PLACEMENT_3D ( 'NONE', #323, #251, #94 ) ;
#217 = ADVANCED_BREP_SHAPE_REPRESENTATION ( 'bj300-10040', ( #231, #60 ), #88 ) ;
#218 = PERSON_AND_ORGANIZATION_ROLE ( 'design_supplier' ) ;
#219 = ADVANCED_FACE ( 'NONE', ( #7 ), #4, .T. ) ;
#220 = DIRECTION ( 'NONE',  ( 0.000000000000000000, 0.000000000000000000, 1.000000000000000000 ) ) ;
#221 = APPROVAL_DATE_TIME ( #169, #257 ) ;
#222 = PLANE ( 'NONE',  #198 ) ;
#223 = CARTESIAN_POINT ( 'NONE',  ( 16.00000000000000000, 0.000000000000000000, 0.000000000000000000 ) ) ;
#224 = CC_DESIGN_PERSON_AND_ORGANIZATION_ASSIGNMENT ( #165, #241, ( #1 ) ) ;
#225 = VERTEX_POINT ( 'NONE', #133 ) ;
#226 = DIRECTION ( 'NONE',  ( 1.000000000000000000, 0.000000000000000000, 0.000000000000000000 ) ) ;
#227 = AXIS2_PLACEMENT_3D ( 'NONE', #103, #23, #150 ) ;
#228 = ORIENTED_EDGE ( 'NONE', *, *, #280, .T. ) ;
#229 = AXIS2_PLACEMENT_3D ( 'NONE', #67, #45, #145 ) ;
#230 = CARTESIAN_POINT ( 'NONE',  ( 0.000000000000000000, 0.000000000000000000, 9.000000000000000000 ) ) ;
#231 = MANIFOLD_SOLID_BREP ( 'Imported1', #311 ) ;
#232 = DIRECTION ( 'NONE',  ( 1.000000000000000000, 0.000000000000000000, 0.000000000000000000 ) ) ;
#233 = ORIENTED_EDGE ( 'NONE', *, *, #157, .F. ) ;
#234 =( NAMED_UNIT ( * ) SI_UNIT ( $, .STERADIAN. ) SOLID_ANGLE_UNIT ( ) );
#235 = ORIENTED_EDGE ( 'NONE', *, *, #174, .T. ) ;
#236 = EDGE_CURVE ( 'NONE', #300, #139, #75, .T. ) ;
#237 = LINE ( 'NONE', #86, #142 ) ;
#238 = EDGE_LOOP ( 'NONE', ( #117, #18, #265, #119 ) ) ;
#239 = FACE_BOUND ( 'NONE', #310, .T. ) ;
#240 = EDGE_CURVE ( 'NONE', #300, #81, #111, .T. ) ;
#241 = PERSON_AND_ORGANIZATION_ROLE ( 'design_owner' ) ;
#242 = AXIS2_PLACEMENT_3D ( 'NONE', #69, #175, #146 ) ;
#243 = PRODUCT_DEFINITION_FORMATION_WITH_SPECIFIED_SOURCE ( 'ANY', '', #1, .NOT_KNOWN. ) ;
#244 = VERTEX_POINT ( 'NONE', #253 ) ;
#245 = DIRECTION ( 'NONE',  ( 1.000000000000000000, 0.000000000000000000, 0.000000000000000000 ) ) ;
#246 = CARTESIAN_POINT ( 'NONE',  ( 0.000000000000000000, 0.000000000000000000, 9.000000000000000000 ) ) ;
#247 = EDGE_CURVE ( 'NONE', #320, #134, #105, .T. ) ;
#248 = CALENDAR_DATE ( 2021, 25, 10 ) ;
#249 = CIRCLE ( 'NONE', #102, 16.00000000000000000 ) ;
#250 = APPROVAL_DATE_TIME ( #22, #182 ) ;
#251 = DIRECTION ( 'NONE',  ( 0.000000000000000000, 0.000000000000000000, 1.000000000000000000 ) ) ;
#252 = EDGE_CURVE ( 'NONE', #262, #136, #264, .T. ) ;
#253 = CARTESIAN_POINT ( 'NONE',  ( -5.500000000000000000, 6.735557395310442023E-16, 0.000000000000000000 ) ) ;
#254 = DIRECTION ( 'NONE',  ( 0.000000000000000000, 0.000000000000000000, 1.000000000000000000 ) ) ;
#255 = ORIENTED_EDGE ( 'NONE', *, *, #240, .T. ) ;
#256 = ORIENTED_EDGE ( 'NONE', *, *, #247, .F. ) ;
#257 = APPROVAL ( #180, 'UNSPECIFIED' ) ;
#258 = EDGE_LOOP ( 'NONE', ( #62, #161 ) ) ;
#259 = COORDINATED_UNIVERSAL_TIME_OFFSET ( 9, 0, .AHEAD. ) ;
#260 = FACE_BOUND ( 'NONE', #258, .T. ) ;
#261 = DESIGN_CONTEXT ( 'detailed design', #271, 'design' ) ;
#262 = VERTEX_POINT ( 'NONE', #29 ) ;
#263 = EDGE_CURVE ( 'NONE', #136, #262, #249, .T. ) ;
#264 = CIRCLE ( 'NONE', #309, 16.00000000000000000 ) ;
#265 = ORIENTED_EDGE ( 'NONE', *, *, #96, .T. ) ;
#266 = ADVANCED_FACE ( 'NONE', ( #132 ), #114, .T. ) ;
#267 = APPLICATION_PROTOCOL_DEFINITION ( 'international standard', 'config_control_design', 1994, #271 ) ;
#268 = DIRECTION ( 'NONE',  ( 0.000000000000000000, 0.000000000000000000, 1.000000000000000000 ) ) ;
#269 = PERSON_AND_ORGANIZATION ( #314, #144 ) ;
#270 = CARTESIAN_POINT ( 'NONE',  ( 0.000000000000000000, 0.000000000000000000, 40.00000000000000000 ) ) ;
#271 = APPLICATION_CONTEXT ( 'configuration controlled 3d designs of mechanical parts and assemblies' ) ;
#272 = CARTESIAN_POINT ( 'NONE',  ( 0.000000000000000000, 0.000000000000000000, 9.000000000000000000 ) ) ;
#273 = APPROVAL_ROLE ( '' ) ;
#274 = CYLINDRICAL_SURFACE ( 'NONE', #216, 9.000000000000000000 ) ;
#275 = ORIENTED_EDGE ( 'NONE', *, *, #153, .T. ) ;
#276 = CARTESIAN_POINT ( 'NONE',  ( 16.00000000000000000, 0.000000000000000000, 40.00000000000000000 ) ) ;
#277 = EDGE_CURVE ( 'NONE', #139, #313, #162, .T. ) ;
#278 = DIRECTION ( 'NONE',  ( 0.000000000000000000, 0.000000000000000000, 1.000000000000000000 ) ) ;
#279 = CC_DESIGN_PERSON_AND_ORGANIZATION_ASSIGNMENT ( #269, #326, ( #243 ) ) ;
#280 = EDGE_CURVE ( 'NONE', #320, #244, #112, .T. ) ;
#281 = CARTESIAN_POINT ( 'NONE',  ( -9.000000000000000000, 1.102182119232617714E-15, 40.00000000000000000 ) ) ;
#282 = CARTESIAN_POINT ( 'NONE',  ( 5.500000000000000000, 0.000000000000000000, 40.00000000000000000 ) ) ;
#283 = DIRECTION ( 'NONE',  ( 1.000000000000000000, 0.000000000000000000, 0.000000000000000000 ) ) ;
#284 = AXIS2_PLACEMENT_3D ( 'NONE', #109, #184, #57 ) ;
#285 = EDGE_CURVE ( 'NONE', #262, #304, #59, .T. ) ;
#286 = CARTESIAN_POINT ( 'NONE',  ( 9.000000000000000000, 0.000000000000000000, 40.00000000000000000 ) ) ;
#287 = CARTESIAN_POINT ( 'NONE',  ( -16.00000000000000000, 1.959434878635765131E-15, 40.00000000000000000 ) ) ;
#288 = AXIS2_PLACEMENT_3D ( 'NONE', #155, #9, #187 ) ;
#289 = CC_DESIGN_APPROVAL ( #257, ( #243 ) ) ;
#290 = PERSON_AND_ORGANIZATION ( #314, #144 ) ;
#291 = ADVANCED_FACE ( 'NONE', ( #260, #11 ), #116, .F. ) ;
#292 = FACE_OUTER_BOUND ( 'NONE', #121, .T. ) ;
#293 = PERSON_AND_ORGANIZATION_ROLE ( 'creator' ) ;
#294 = DIRECTION ( 'NONE',  ( 1.000000000000000000, 0.000000000000000000, 0.000000000000000000 ) ) ;
#295 = EDGE_CURVE ( 'NONE', #225, #304, #72, .T. ) ;
#296 = AXIS2_PLACEMENT_3D ( 'NONE', #190, #37, #120 ) ;
#297 = PERSON_AND_ORGANIZATION_ROLE ( 'classification_officer' ) ;
#298 = DIRECTION ( 'NONE',  ( 1.000000000000000000, 0.000000000000000000, 0.000000000000000000 ) ) ;
#299 = CARTESIAN_POINT ( 'NONE',  ( 16.00000000000000000, 0.000000000000000000, 40.00000000000000000 ) ) ;
#300 = VERTEX_POINT ( 'NONE', #159 ) ;
#301 = CARTESIAN_POINT ( 'NONE',  ( 0.000000000000000000, 0.000000000000000000, 0.000000000000000000 ) ) ;
#302 = AXIS2_PLACEMENT_3D ( 'NONE', #78, #205, #226 ) ;
#303 = LOCAL_TIME ( 8, 51, 7.000000000000000000, #173 ) ;
#304 = VERTEX_POINT ( 'NONE', #287 ) ;
#305 = DIRECTION ( 'NONE',  ( 0.000000000000000000, 0.000000000000000000, 1.000000000000000000 ) ) ;
#306 = EDGE_CURVE ( 'NONE', #244, #55, #237, .T. ) ;
#307 = CARTESIAN_POINT ( 'NONE',  ( 9.000000000000000000, 0.000000000000000000, 40.00000000000000000 ) ) ;
#308 = ORIENTED_EDGE ( 'NONE', *, *, #295, .F. ) ;
#309 = AXIS2_PLACEMENT_3D ( 'NONE', #301, #77, #152 ) ;
#310 = EDGE_LOOP ( 'NONE', ( #228, #275 ) ) ;
#311 = CLOSED_SHELL ( 'NONE', ( #160, #219, #14, #101, #84, #3, #266, #291, #8 ) ) ;
#312 = APPLICATION_PROTOCOL_DEFINITION ( 'international standard', 'config_control_design', 1994, #208 ) ;
#313 = VERTEX_POINT ( 'NONE', #286 ) ;
#314 = PERSON ( 'UNSPECIFIED', 'UNSPECIFIED', 'UNSPECIFIED', ('UNSPECIFIED'), ('UNSPECIFIED'), ('UNSPECIFIED') ) ;
#315 = DIRECTION ( 'NONE',  ( -1.000000000000000000, 0.000000000000000000, 0.000000000000000000 ) ) ;
#316 = CIRCLE ( 'NONE', #95, 5.500000000000000000 ) ;
#317 =( NAMED_UNIT ( * ) PLANE_ANGLE_UNIT ( ) SI_UNIT ( $, .RADIAN. ) );
#318 = EDGE_LOOP ( 'NONE', ( #156, #185 ) ) ;
#319 = CALENDAR_DATE ( 2021, 25, 10 ) ;
#320 = VERTEX_POINT ( 'NONE', #211 ) ;
#321 = FACE_OUTER_BOUND ( 'NONE', #210, .T. ) ;
#322 = APPROVAL ( #177, 'UNSPECIFIED' ) ;
#323 = CARTESIAN_POINT ( 'NONE',  ( 0.000000000000000000, 0.000000000000000000, 40.00000000000000000 ) ) ;
#324 = EDGE_CURVE ( 'NONE', #81, #313, #122, .T. ) ;
#325 = PLANE ( 'NONE',  #176 ) ;
#326 = PERSON_AND_ORGANIZATION_ROLE ( 'creator' ) ;
#327 = VECTOR ( 'NONE', #34, 1000.000000000000000 ) ;
#328 = CC_DESIGN_APPROVAL ( #182, ( #168 ) ) ;
#329 = DIRECTION ( 'NONE',  ( 1.000000000000000000, 0.000000000000000000, 0.000000000000000000 ) ) ;
ENDSEC;
END-ISO-10303-21;
