ISO-10303-21;
HEADER;
FILE_DESCRIPTION (( 'STEP AP203' ),
    '1' );
FILE_NAME ('bj712-18022.STEP',
    '2021-10-24T23:59:00',
    ( '' ),
    ( '' ),
    'SwSTEP 2.0',
    'SolidWorks 2020',
    '' );
FILE_SCHEMA (( 'CONFIG_CONTROL_DESIGN' ));
ENDSEC;

DATA;
#1 = CYLINDRICAL_SURFACE ( 'NONE', #154, 3.500000000000000000 ) ;
#2 = CC_DESIGN_APPROVAL ( #50, ( #10 ) ) ;
#3 = FACE_BOUND ( 'NONE', #163, .T. ) ;
#4 = EDGE_LOOP ( 'NONE', ( #279, #265, #232, #344 ) ) ;
#5 = CARTESIAN_POINT ( 'NONE',  ( 0.000000000000000000, 0.000000000000000000, 10.00000000000000000 ) ) ;
#6 = ORIENTED_EDGE ( 'NONE', *, *, #244, .F. ) ;
#7 = CARTESIAN_POINT ( 'NONE',  ( 11.00000000000000000, 9.000000000000000000, 10.00000000000000000 ) ) ;
#8 = CIRCLE ( 'NONE', #223, 5.500000000000000000 ) ;
#9 = VERTEX_POINT ( 'NONE', #100 ) ;
#10 = PRODUCT_DEFINITION_FORMATION_WITH_SPECIFIED_SOURCE ( 'ANY', '', #305, .NOT_KNOWN. ) ;
#11 = DIRECTION ( 'NONE',  ( 0.000000000000000000, 0.000000000000000000, -1.000000000000000000 ) ) ;
#12 = CARTESIAN_POINT ( 'NONE',  ( -11.00000000000000000, -9.000000000000000000, 10.00000000000000000 ) ) ;
#13 = APPLICATION_CONTEXT ( 'configuration controlled 3d designs of mechanical parts and assemblies' ) ;
#14 = LINE ( 'NONE', #190, #88 ) ;
#15 = EDGE_CURVE ( 'NONE', #161, #270, #17, .T. ) ;
#16 = PERSON_AND_ORGANIZATION_ROLE ( 'design_owner' ) ;
#17 = CIRCLE ( 'NONE', #236, 5.500000000000000000 ) ;
#18 = COORDINATED_UNIVERSAL_TIME_OFFSET ( 9, 0, .AHEAD. ) ;
#19 = EDGE_CURVE ( 'NONE', #328, #230, #291, .T. ) ;
#20 = VECTOR ( 'NONE', #341, 1000.000000000000000 ) ;
#21 = DIRECTION ( 'NONE',  ( -1.000000000000000000, 0.000000000000000000, 0.000000000000000000 ) ) ;
#22 = SHAPE_DEFINITION_REPRESENTATION ( #249, #172 ) ;
#23 = FACE_OUTER_BOUND ( 'NONE', #135, .T. ) ;
#24 = CARTESIAN_POINT ( 'NONE',  ( 11.00000000000000000, -9.000000000000000000, 10.00000000000000000 ) ) ;
#25 = DIRECTION ( 'NONE',  ( -1.000000000000000000, 1.577021341797100025E-16, 0.000000000000000000 ) ) ;
#26 = AXIS2_PLACEMENT_3D ( 'NONE', #222, #250, #160 ) ;
#27 = CYLINDRICAL_SURFACE ( 'NONE', #150, 5.500000000000000000 ) ;
#28 = EDGE_LOOP ( 'NONE', ( #86, #84, #181, #106 ) ) ;
#29 = ORGANIZATION ( 'UNSPECIFIED', 'UNSPECIFIED', '' ) ;
#30 = ORIENTED_EDGE ( 'NONE', *, *, #114, .F. ) ;
#31 = ADVANCED_FACE ( 'NONE', ( #386, #77 ), #173, .T. ) ;
#32 = EDGE_LOOP ( 'NONE', ( #330, #165, #131, #51 ) ) ;
#33 = CLOSED_SHELL ( 'NONE', ( #254, #235, #31, #257, #119, #68, #313, #153, #183, #169, #207 ) ) ;
#34 = CARTESIAN_POINT ( 'NONE',  ( 11.00000000000000000, 9.000000000000000000, 10.00000000000000000 ) ) ;
#35 = EDGE_CURVE ( 'NONE', #348, #371, #195, .T. ) ;
#36 = UNCERTAINTY_MEASURE_WITH_UNIT (LENGTH_MEASURE( 1.000000000000000082E-05 ), #37, 'distance_accuracy_value', 'NONE');
#37 =( LENGTH_UNIT ( ) NAMED_UNIT ( * ) SI_UNIT ( .MILLI., .METRE. ) );
#38 = CARTESIAN_POINT ( 'NONE',  ( 0.000000000000000000, 0.000000000000000000, 3.500000000000000000 ) ) ;
#39 = DIRECTION ( 'NONE',  ( 1.000000000000000000, 0.000000000000000000, 0.000000000000000000 ) ) ;
#40 = AXIS2_PLACEMENT_3D ( 'NONE', #213, #184, #82 ) ;
#41 = CARTESIAN_POINT ( 'NONE',  ( 11.00000000000000000, -9.000000000000000000, 10.00000000000000000 ) ) ;
#42 = PLANE ( 'NONE',  #96 ) ;
#43 = PERSON_AND_ORGANIZATION ( #347, #29 ) ;
#44 = ORIENTED_EDGE ( 'NONE', *, *, #324, .F. ) ;
#45 = SECURITY_CLASSIFICATION_LEVEL ( 'unclassified' ) ;
#46 = DIRECTION ( 'NONE',  ( 1.000000000000000000, 0.000000000000000000, 0.000000000000000000 ) ) ;
#47 = ORIENTED_EDGE ( 'NONE', *, *, #229, .T. ) ;
#48 = CARTESIAN_POINT ( 'NONE',  ( 5.500000000000000000, 0.000000000000000000, 3.500000000000000000 ) ) ;
#49 = PERSON_AND_ORGANIZATION ( #347, #29 ) ;
#50 = APPROVAL ( #78, 'UNSPECIFIED' ) ;
#51 = ORIENTED_EDGE ( 'NONE', *, *, #244, .T. ) ;
#52 = LINE ( 'NONE', #136, #320 ) ;
#53 = CIRCLE ( 'NONE', #370, 5.500000000000000000 ) ;
#54 = PRODUCT_DEFINITION ( 'UNKNOWN', '', #10, #191 ) ;
#55 = LINE ( 'NONE', #157, #125 ) ;
#56 = DIRECTION ( 'NONE',  ( 0.000000000000000000, 0.000000000000000000, 1.000000000000000000 ) ) ;
#57 = CARTESIAN_POINT ( 'NONE',  ( 5.500000000000000000, 0.000000000000000000, 10.00000000000000000 ) ) ;
#58 = ORIENTED_EDGE ( 'NONE', *, *, #282, .T. ) ;
#59 = DIRECTION ( 'NONE',  ( 1.000000000000000000, -1.577021341797100025E-16, 0.000000000000000000 ) ) ;
#60 = ORIENTED_EDGE ( 'NONE', *, *, #85, .F. ) ;
#61 = PERSON_AND_ORGANIZATION ( #347, #29 ) ;
#62 = VERTEX_POINT ( 'NONE', #227 ) ;
#63 = EDGE_CURVE ( 'NONE', #161, #262, #104, .T. ) ;
#64 = DIRECTION ( 'NONE',  ( 0.000000000000000000, 0.000000000000000000, 1.000000000000000000 ) ) ;
#65 = PERSON_AND_ORGANIZATION ( #347, #29 ) ;
#66 =( GEOMETRIC_REPRESENTATION_CONTEXT ( 3 ) GLOBAL_UNCERTAINTY_ASSIGNED_CONTEXT ( ( #36 ) ) GLOBAL_UNIT_ASSIGNED_CONTEXT ( ( #37, #130, #123 ) ) REPRESENTATION_CONTEXT ( 'NONE', 'WORKASPACE' ) );
#67 = ORIENTED_EDGE ( 'NONE', *, *, #80, .F. ) ;
#68 = ADVANCED_FACE ( 'NONE', ( #273 ), #391, .F. ) ;
#69 = ORIENTED_EDGE ( 'NONE', *, *, #156, .F. ) ;
#70 = PERSON_AND_ORGANIZATION_ROLE ( 'creator' ) ;
#71 = VECTOR ( 'NONE', #64, 1000.000000000000000 ) ;
#72 = AXIS2_PLACEMENT_3D ( 'NONE', #264, #319, #352 ) ;
#73 = CARTESIAN_POINT ( 'NONE',  ( -3.500000000000000000, 4.286263797015736595E-16, -1.734723475976804925E-15 ) ) ;
#74 = EDGE_LOOP ( 'NONE', ( #60, #147, #122, #6 ) ) ;
#75 = COORDINATED_UNIVERSAL_TIME_OFFSET ( 9, 0, .AHEAD. ) ;
#76 = CARTESIAN_POINT ( 'NONE',  ( 0.000000000000000000, 0.000000000000000000, 10.00000000000000000 ) ) ;
#77 = FACE_BOUND ( 'NONE', #337, .T. ) ;
#78 = APPROVAL_STATUS ( 'not_yet_approved' ) ;
#79 = CARTESIAN_POINT ( 'NONE',  ( 0.000000000000000000, 0.000000000000000000, 10.00000000000000000 ) ) ;
#80 = EDGE_CURVE ( 'NONE', #348, #328, #178, .T. ) ;
#81 = CARTESIAN_POINT ( 'NONE',  ( -11.00000000000000000, -9.000000000000000000, 10.00000000000000000 ) ) ;
#82 = DIRECTION ( 'NONE',  ( 1.000000000000000000, 0.000000000000000000, 0.000000000000000000 ) ) ;
#83 = EDGE_LOOP ( 'NONE', ( #228, #385, #138, #284 ) ) ;
#84 = ORIENTED_EDGE ( 'NONE', *, *, #215, .F. ) ;
#85 = EDGE_CURVE ( 'NONE', #230, #362, #217, .T. ) ;
#86 = ORIENTED_EDGE ( 'NONE', *, *, #329, .F. ) ;
#87 = CARTESIAN_POINT ( 'NONE',  ( 0.000000000000000000, 0.000000000000000000, 10.00000000000000000 ) ) ;
#88 = VECTOR ( 'NONE', #342, 1000.000000000000000 ) ;
#89 = EDGE_CURVE ( 'NONE', #245, #262, #209, .T. ) ;
#90 = CARTESIAN_POINT ( 'NONE',  ( -11.00000000000000000, -9.000000000000000000, 0.000000000000000000 ) ) ;
#91 = DIRECTION ( 'NONE',  ( 1.000000000000000000, 0.000000000000000000, 0.000000000000000000 ) ) ;
#92 = CC_DESIGN_PERSON_AND_ORGANIZATION_ASSIGNMENT ( #287, #259, ( #10 ) ) ;
#93 = CARTESIAN_POINT ( 'NONE',  ( 0.000000000000000000, 0.000000000000000000, 3.500000000000000000 ) ) ;
#94 = DIRECTION ( 'NONE',  ( 1.000000000000000000, 0.000000000000000000, 0.000000000000000000 ) ) ;
#95 = PLANE ( 'NONE',  #26 ) ;
#96 = AXIS2_PLACEMENT_3D ( 'NONE', #350, #318, #286 ) ;
#97 = DIRECTION ( 'NONE',  ( 1.000000000000000000, 0.000000000000000000, 0.000000000000000000 ) ) ;
#98 = CARTESIAN_POINT ( 'NONE',  ( 0.000000000000000000, 0.000000000000000000, 0.000000000000000000 ) ) ;
#99 = DIRECTION ( 'NONE',  ( 1.000000000000000000, 0.000000000000000000, 0.000000000000000000 ) ) ;
#100 = CARTESIAN_POINT ( 'NONE',  ( 3.500000000000000000, 0.000000000000000000, 3.500000000000000000 ) ) ;
#101 = APPROVAL_STATUS ( 'not_yet_approved' ) ;
#102 = VECTOR ( 'NONE', #376, 1000.000000000000000 ) ;
#103 = ORIENTED_EDGE ( 'NONE', *, *, #35, .F. ) ;
#104 = LINE ( 'NONE', #366, #164 ) ;
#105 = CC_DESIGN_DATE_AND_TIME_ASSIGNMENT ( #233, #289, ( #134 ) ) ;
#106 = ORIENTED_EDGE ( 'NONE', *, *, #85, .T. ) ;
#107 = PERSON_AND_ORGANIZATION_ROLE ( 'classification_officer' ) ;
#108 = ORIENTED_EDGE ( 'NONE', *, *, #140, .F. ) ;
#109 = CARTESIAN_POINT ( 'NONE',  ( 0.000000000000000000, 0.000000000000000000, 10.00000000000000000 ) ) ;
#110 = CALENDAR_DATE ( 2021, 25, 10 ) ;
#111 = AXIS2_PLACEMENT_3D ( 'NONE', #38, #308, #97 ) ;
#112 = FACE_BOUND ( 'NONE', #118, .T. ) ;
#113 = APPROVAL_DATE_TIME ( #383, #377 ) ;
#114 = EDGE_CURVE ( 'NONE', #270, #245, #333, .T. ) ;
#115 = VECTOR ( 'NONE', #325, 1000.000000000000000 ) ;
#116 = CARTESIAN_POINT ( 'NONE',  ( 11.00000000000000000, 9.000000000000000000, 0.000000000000000000 ) ) ;
#117 = EDGE_CURVE ( 'NONE', #9, #62, #368, .T. ) ;
#118 = EDGE_LOOP ( 'NONE', ( #47, #380 ) ) ;
#119 = ADVANCED_FACE ( 'NONE', ( #126 ), #277, .F. ) ;
#120 = ORIENTED_EDGE ( 'NONE', *, *, #282, .F. ) ;
#121 = AXIS2_PLACEMENT_3D ( 'NONE', #98, #220, #94 ) ;
#122 = ORIENTED_EDGE ( 'NONE', *, *, #189, .F. ) ;
#123 =( NAMED_UNIT ( * ) SI_UNIT ( $, .STERADIAN. ) SOLID_ANGLE_UNIT ( ) );
#124 = CARTESIAN_POINT ( 'NONE',  ( -11.00000000000000000, -9.000000000000000000, 10.00000000000000000 ) ) ;
#125 = VECTOR ( 'NONE', #253, 1000.000000000000000 ) ;
#126 = FACE_OUTER_BOUND ( 'NONE', #32, .T. ) ;
#127 = LINE ( 'NONE', #12, #275 ) ;
#128 = DIRECTION ( 'NONE',  ( -1.000000000000000000, 1.577021341797100025E-16, 0.000000000000000000 ) ) ;
#129 = CARTESIAN_POINT ( 'NONE',  ( 11.00000000000000000, -9.000000000000000000, 10.00000000000000000 ) ) ;
#130 =( NAMED_UNIT ( * ) PLANE_ANGLE_UNIT ( ) SI_UNIT ( $, .RADIAN. ) );
#131 = ORIENTED_EDGE ( 'NONE', *, *, #329, .T. ) ;
#132 = DIRECTION ( 'NONE',  ( 0.000000000000000000, 0.000000000000000000, 1.000000000000000000 ) ) ;
#133 = APPROVAL_DATE_TIME ( #206, #363 ) ;
#134 = SECURITY_CLASSIFICATION ( '', '', #45 ) ;
#135 = EDGE_LOOP ( 'NONE', ( #30, #382, #197, #269 ) ) ;
#136 = CARTESIAN_POINT ( 'NONE',  ( 3.500000000000000000, 0.000000000000000000, 10.00000000000000000 ) ) ;
#137 = ORIENTED_EDGE ( 'NONE', *, *, #89, .F. ) ;
#138 = ORIENTED_EDGE ( 'NONE', *, *, #156, .T. ) ;
#139 = CALENDAR_DATE ( 2021, 25, 10 ) ;
#140 = EDGE_CURVE ( 'NONE', #262, #245, #8, .T. ) ;
#141 = DATE_TIME_ROLE ( 'creation_date' ) ;
#142 = VECTOR ( 'NONE', #246, 1000.000000000000000 ) ;
#143 = FACE_OUTER_BOUND ( 'NONE', #83, .T. ) ;
#144 = CARTESIAN_POINT ( 'NONE',  ( -5.500000000000000000, 6.735557395310442023E-16, 10.00000000000000000 ) ) ;
#145 = EDGE_CURVE ( 'NONE', #271, #211, #200, .T. ) ;
#146 = FACE_OUTER_BOUND ( 'NONE', #240, .T. ) ;
#147 = ORIENTED_EDGE ( 'NONE', *, *, #19, .F. ) ;
#148 = ORIENTED_EDGE ( 'NONE', *, *, #80, .T. ) ;
#149 = CC_DESIGN_DATE_AND_TIME_ASSIGNMENT ( #203, #141, ( #54 ) ) ;
#150 = AXIS2_PLACEMENT_3D ( 'NONE', #76, #204, #323 ) ;
#151 = EDGE_LOOP ( 'NONE', ( #120, #243, #237, #367 ) ) ;
#152 = ORIENTED_EDGE ( 'NONE', *, *, #300, .T. ) ;
#153 = ADVANCED_FACE ( 'NONE', ( #112, #202 ), #42, .F. ) ;
#154 = AXIS2_PLACEMENT_3D ( 'NONE', #5, #56, #358 ) ;
#155 = APPLICATION_CONTEXT ( 'configuration controlled 3d designs of mechanical parts and assemblies' ) ;
#156 = EDGE_CURVE ( 'NONE', #211, #9, #52, .T. ) ;
#157 = CARTESIAN_POINT ( 'NONE',  ( 11.00000000000000000, -9.000000000000000000, 0.000000000000000000 ) ) ;
#158 = LINE ( 'NONE', #252, #310 ) ;
#159 = CC_DESIGN_APPROVAL ( #363, ( #134 ) ) ;
#160 = DIRECTION ( 'NONE',  ( 0.000000000000000000, 0.000000000000000000, -1.000000000000000000 ) ) ;
#161 = VERTEX_POINT ( 'NONE', #48 ) ;
#162 = MECHANICAL_CONTEXT ( 'NONE', #155, 'mechanical' ) ;
#163 = EDGE_LOOP ( 'NONE', ( #303, #388 ) ) ;
#164 = VECTOR ( 'NONE', #364, 1000.000000000000000 ) ;
#165 = ORIENTED_EDGE ( 'NONE', *, *, #340, .F. ) ;
#166 = DIRECTION ( 'NONE',  ( 0.000000000000000000, 0.000000000000000000, 1.000000000000000000 ) ) ;
#167 = COORDINATED_UNIVERSAL_TIME_OFFSET ( 9, 0, .AHEAD. ) ;
#168 = LOCAL_TIME ( 8, 59, 0.000000000000000000, #75 ) ;
#169 = ADVANCED_FACE ( 'NONE', ( #268, #3 ), #296, .T. ) ;
#170 = DIRECTION ( 'NONE',  ( 1.000000000000000000, 0.000000000000000000, 0.000000000000000000 ) ) ;
#171 = CALENDAR_DATE ( 2021, 25, 10 ) ;
#172 = ADVANCED_BREP_SHAPE_REPRESENTATION ( 'bj712-18022', ( #276, #121 ), #66 ) ;
#173 = PLANE ( 'NONE',  #307 ) ;
#174 = DIRECTION ( 'NONE',  ( 1.000000000000000000, 0.000000000000000000, 0.000000000000000000 ) ) ;
#175 = AXIS2_PLACEMENT_3D ( 'NONE', #24, #21, #198 ) ;
#176 = APPROVAL_PERSON_ORGANIZATION ( #61, #377, #283 ) ;
#177 = CARTESIAN_POINT ( 'NONE',  ( -11.00000000000000000, -9.000000000000000000, 10.00000000000000000 ) ) ;
#178 = LINE ( 'NONE', #306, #142 ) ;
#179 = CC_DESIGN_PERSON_AND_ORGANIZATION_ASSIGNMENT ( #317, #107, ( #134 ) ) ;
#180 = EDGE_LOOP ( 'NONE', ( #67, #299, #205, #214 ) ) ;
#181 = ORIENTED_EDGE ( 'NONE', *, *, #324, .T. ) ;
#182 = CC_DESIGN_SECURITY_CLASSIFICATION ( #134, ( #10 ) ) ;
#183 = ADVANCED_FACE ( 'NONE', ( #23 ), #27, .F. ) ;
#184 = DIRECTION ( 'NONE',  ( 0.000000000000000000, 0.000000000000000000, 1.000000000000000000 ) ) ;
#185 = LINE ( 'NONE', #335, #187 ) ;
#186 = CARTESIAN_POINT ( 'NONE',  ( -5.500000000000000000, 6.735557395310442023E-16, 10.00000000000000000 ) ) ;
#187 = VECTOR ( 'NONE', #128, 1000.000000000000000 ) ;
#188 = CALENDAR_DATE ( 2021, 25, 10 ) ;
#189 = EDGE_CURVE ( 'NONE', #201, #328, #389, .T. ) ;
#190 = CARTESIAN_POINT ( 'NONE',  ( 11.00000000000000000, -9.000000000000000000, 10.00000000000000000 ) ) ;
#191 = DESIGN_CONTEXT ( 'detailed design', #13, 'design' ) ;
#192 = CC_DESIGN_PERSON_AND_ORGANIZATION_ASSIGNMENT ( #357, #70, ( #54 ) ) ;
#193 = VECTOR ( 'NONE', #25, 1000.000000000000000 ) ;
#194 = DIRECTION ( 'NONE',  ( 1.000000000000000000, 0.000000000000000000, 0.000000000000000000 ) ) ;
#195 = LINE ( 'NONE', #316, #290 ) ;
#196 = PERSON_AND_ORGANIZATION ( #347, #29 ) ;
#197 = ORIENTED_EDGE ( 'NONE', *, *, #63, .T. ) ;
#198 = DIRECTION ( 'NONE',  ( 0.000000000000000000, 0.000000000000000000, 1.000000000000000000 ) ) ;
#199 = APPROVAL_ROLE ( '' ) ;
#200 = CIRCLE ( 'NONE', #224, 3.500000000000000000 ) ;
#201 = VERTEX_POINT ( 'NONE', #116 ) ;
#202 = FACE_OUTER_BOUND ( 'NONE', #74, .T. ) ;
#203 = DATE_AND_TIME ( #110, #168 ) ;
#204 = DIRECTION ( 'NONE',  ( 0.000000000000000000, 0.000000000000000000, 1.000000000000000000 ) ) ;
#205 = ORIENTED_EDGE ( 'NONE', *, *, #355, .T. ) ;
#206 = DATE_AND_TIME ( #171, #331 ) ;
#207 = ADVANCED_FACE ( 'NONE', ( #143 ), #301, .F. ) ;
#208 = DIRECTION ( 'NONE',  ( 0.000000000000000000, 1.000000000000000000, 0.000000000000000000 ) ) ;
#209 = CIRCLE ( 'NONE', #309, 5.500000000000000000 ) ;
#210 = CARTESIAN_POINT ( 'NONE',  ( 3.500000000000000000, 0.000000000000000000, -1.734723475976804925E-15 ) ) ;
#211 = VERTEX_POINT ( 'NONE', #210 ) ;
#212 = APPROVAL_PERSON_ORGANIZATION ( #43, #363, #263 ) ;
#213 = CARTESIAN_POINT ( 'NONE',  ( 0.000000000000000000, 0.000000000000000000, 10.00000000000000000 ) ) ;
#214 = ORIENTED_EDGE ( 'NONE', *, *, #189, .T. ) ;
#215 = EDGE_CURVE ( 'NONE', #371, #218, #326, .T. ) ;
#216 = DIRECTION ( 'NONE',  ( 1.000000000000000000, 0.000000000000000000, 0.000000000000000000 ) ) ;
#217 = LINE ( 'NONE', #365, #336 ) ;
#218 = VERTEX_POINT ( 'NONE', #41 ) ;
#219 = APPLICATION_PROTOCOL_DEFINITION ( 'international standard', 'config_control_design', 1994, #155 ) ;
#220 = DIRECTION ( 'NONE',  ( 0.000000000000000000, 0.000000000000000000, 1.000000000000000000 ) ) ;
#221 = CARTESIAN_POINT ( 'NONE',  ( -11.00000000000000000, 9.000000000000000000, 0.000000000000000000 ) ) ;
#222 = CARTESIAN_POINT ( 'NONE',  ( -11.00000000000000000, 9.000000000000000000, 10.00000000000000000 ) ) ;
#223 = AXIS2_PLACEMENT_3D ( 'NONE', #109, #387, #174 ) ;
#224 = AXIS2_PLACEMENT_3D ( 'NONE', #321, #166, #238 ) ;
#225 = DIRECTION ( 'NONE',  ( 1.000000000000000000, 0.000000000000000000, 0.000000000000000000 ) ) ;
#226 = CARTESIAN_POINT ( 'NONE',  ( 11.00000000000000000, -9.000000000000000000, 10.00000000000000000 ) ) ;
#227 = CARTESIAN_POINT ( 'NONE',  ( -3.500000000000000000, 4.286263797015736595E-16, 3.500000000000000000 ) ) ;
#228 = ORIENTED_EDGE ( 'NONE', *, *, #343, .F. ) ;
#229 = EDGE_CURVE ( 'NONE', #211, #271, #314, .T. ) ;
#230 = VERTEX_POINT ( 'NONE', #90 ) ;
#231 = PERSON_AND_ORGANIZATION_ROLE ( 'creator' ) ;
#232 = ORIENTED_EDGE ( 'NONE', *, *, #332, .T. ) ;
#233 = DATE_AND_TIME ( #381, #378 ) ;
#234 = COORDINATED_UNIVERSAL_TIME_OFFSET ( 9, 0, .AHEAD. ) ;
#235 = ADVANCED_FACE ( 'NONE', ( #297 ), #390, .F. ) ;
#236 = AXIS2_PLACEMENT_3D ( 'NONE', #356, #349, #170 ) ;
#237 = ORIENTED_EDGE ( 'NONE', *, *, #89, .T. ) ;
#238 = DIRECTION ( 'NONE',  ( 1.000000000000000000, 0.000000000000000000, 0.000000000000000000 ) ) ;
#239 = AXIS2_PLACEMENT_3D ( 'NONE', #7, #369, #59 ) ;
#240 = EDGE_LOOP ( 'NONE', ( #302, #274, #152, #69 ) ) ;
#241 = DIRECTION ( 'NONE',  ( 0.000000000000000000, 0.000000000000000000, 1.000000000000000000 ) ) ;
#242 = VECTOR ( 'NONE', #248, 1000.000000000000000 ) ;
#243 = ORIENTED_EDGE ( 'NONE', *, *, #114, .T. ) ;
#244 = EDGE_CURVE ( 'NONE', #362, #201, #55, .T. ) ;
#245 = VERTEX_POINT ( 'NONE', #144 ) ;
#246 = DIRECTION ( 'NONE',  ( 0.000000000000000000, 0.000000000000000000, -1.000000000000000000 ) ) ;
#247 = PLANE ( 'NONE',  #373 ) ;
#248 = DIRECTION ( 'NONE',  ( 0.000000000000000000, 0.000000000000000000, -1.000000000000000000 ) ) ;
#249 = PRODUCT_DEFINITION_SHAPE ( 'NONE', 'NONE',  #54 ) ;
#250 = DIRECTION ( 'NONE',  ( 1.000000000000000000, 0.000000000000000000, 0.000000000000000000 ) ) ;
#251 = CC_DESIGN_APPROVAL ( #377, ( #54 ) ) ;
#252 = CARTESIAN_POINT ( 'NONE',  ( -3.500000000000000000, 4.286263797015736595E-16, 10.00000000000000000 ) ) ;
#253 = DIRECTION ( 'NONE',  ( 0.000000000000000000, 1.000000000000000000, 0.000000000000000000 ) ) ;
#254 = ADVANCED_FACE ( 'NONE', ( #146 ), #1, .F. ) ;
#255 = EDGE_LOOP ( 'NONE', ( #298, #58 ) ) ;
#256 = APPROVAL_PERSON_ORGANIZATION ( #49, #50, #199 ) ;
#257 = ADVANCED_FACE ( 'NONE', ( #281 ), #247, .F. ) ;
#258 = DIRECTION ( 'NONE',  ( 0.000000000000000000, 0.000000000000000000, 1.000000000000000000 ) ) ;
#259 = PERSON_AND_ORGANIZATION_ROLE ( 'design_supplier' ) ;
#260 = EDGE_LOOP ( 'NONE', ( #103, #148, #346, #44 ) ) ;
#261 = CC_DESIGN_PERSON_AND_ORGANIZATION_ASSIGNMENT ( #65, #16, ( #305 ) ) ;
#262 = VERTEX_POINT ( 'NONE', #57 ) ;
#263 = APPROVAL_ROLE ( '' ) ;
#264 = CARTESIAN_POINT ( 'NONE',  ( 3.500000000000000000, 0.000000000000000000, 3.500000000000000000 ) ) ;
#265 = ORIENTED_EDGE ( 'NONE', *, *, #340, .T. ) ;
#266 = CARTESIAN_POINT ( 'NONE',  ( -11.00000000000000000, 9.000000000000000000, 0.000000000000000000 ) ) ;
#267 = DATE_AND_TIME ( #139, #327 ) ;
#268 = FACE_OUTER_BOUND ( 'NONE', #255, .T. ) ;
#269 = ORIENTED_EDGE ( 'NONE', *, *, #140, .T. ) ;
#270 = VERTEX_POINT ( 'NONE', #353 ) ;
#271 = VERTEX_POINT ( 'NONE', #73 ) ;
#272 = CARTESIAN_POINT ( 'NONE',  ( 0.000000000000000000, 0.000000000000000000, 3.500000000000000000 ) ) ;
#273 = FACE_OUTER_BOUND ( 'NONE', #180, .T. ) ;
#274 = ORIENTED_EDGE ( 'NONE', *, *, #343, .T. ) ;
#275 = VECTOR ( 'NONE', #11, 1000.000000000000000 ) ;
#276 = MANIFOLD_SOLID_BREP ( 'Imported1', #33 ) ;
#277 = PLANE ( 'NONE',  #175 ) ;
#278 = LINE ( 'NONE', #311, #242 ) ;
#279 = ORIENTED_EDGE ( 'NONE', *, *, #215, .T. ) ;
#280 = APPLICATION_PROTOCOL_DEFINITION ( 'international standard', 'config_control_design', 1994, #13 ) ;
#281 = FACE_OUTER_BOUND ( 'NONE', #28, .T. ) ;
#282 = EDGE_CURVE ( 'NONE', #270, #161, #53, .T. ) ;
#283 = APPROVAL_ROLE ( '' ) ;
#284 = ORIENTED_EDGE ( 'NONE', *, *, #117, .T. ) ;
#285 = LOCAL_TIME ( 8, 59, 0.000000000000000000, #18 ) ;
#286 = DIRECTION ( 'NONE',  ( 1.000000000000000000, 0.000000000000000000, 0.000000000000000000 ) ) ;
#287 = PERSON_AND_ORGANIZATION ( #347, #29 ) ;
#288 = PRODUCT_RELATED_PRODUCT_CATEGORY ( 'detail', '', ( #305 ) ) ;
#289 = DATE_TIME_ROLE ( 'classification_date' ) ;
#290 = VECTOR ( 'NONE', #379, 1000.000000000000000 ) ;
#291 = LINE ( 'NONE', #266, #115 ) ;
#292 = APPROVAL_DATE_TIME ( #267, #50 ) ;
#293 = CARTESIAN_POINT ( 'NONE',  ( 11.00000000000000000, 9.000000000000000000, 0.000000000000000000 ) ) ;
#294 = AXIS2_PLACEMENT_3D ( 'NONE', #93, #334, #194 ) ;
#295 = DIRECTION ( 'NONE',  ( 0.000000000000000000, 0.000000000000000000, 1.000000000000000000 ) ) ;
#296 = PLANE ( 'NONE',  #72 ) ;
#297 = FACE_OUTER_BOUND ( 'NONE', #151, .T. ) ;
#298 = ORIENTED_EDGE ( 'NONE', *, *, #15, .T. ) ;
#299 = ORIENTED_EDGE ( 'NONE', *, *, #332, .F. ) ;
#300 = EDGE_CURVE ( 'NONE', #62, #9, #338, .T. ) ;
#301 = CYLINDRICAL_SURFACE ( 'NONE', #40, 3.500000000000000000 ) ;
#302 = ORIENTED_EDGE ( 'NONE', *, *, #145, .F. ) ;
#303 = ORIENTED_EDGE ( 'NONE', *, *, #117, .F. ) ;
#304 = DIRECTION ( 'NONE',  ( 0.000000000000000000, 0.000000000000000000, 1.000000000000000000 ) ) ;
#305 = PRODUCT ( 'bj712-18022', 'bj712-18022', '', ( #162 ) ) ;
#306 = CARTESIAN_POINT ( 'NONE',  ( -11.00000000000000000, 9.000000000000000000, 10.00000000000000000 ) ) ;
#307 = AXIS2_PLACEMENT_3D ( 'NONE', #129, #132, #225 ) ;
#308 = DIRECTION ( 'NONE',  ( 0.000000000000000000, 0.000000000000000000, 1.000000000000000000 ) ) ;
#309 = AXIS2_PLACEMENT_3D ( 'NONE', #87, #304, #216 ) ;
#310 = VECTOR ( 'NONE', #315, 1000.000000000000000 ) ;
#311 = CARTESIAN_POINT ( 'NONE',  ( 11.00000000000000000, 9.000000000000000000, 10.00000000000000000 ) ) ;
#312 = DIRECTION ( 'NONE',  ( 0.000000000000000000, 0.000000000000000000, 1.000000000000000000 ) ) ;
#313 = ADVANCED_FACE ( 'NONE', ( #345 ), #95, .F. ) ;
#314 = CIRCLE ( 'NONE', #361, 3.500000000000000000 ) ;
#315 = DIRECTION ( 'NONE',  ( 0.000000000000000000, 0.000000000000000000, 1.000000000000000000 ) ) ;
#316 = CARTESIAN_POINT ( 'NONE',  ( -11.00000000000000000, 9.000000000000000000, 10.00000000000000000 ) ) ;
#317 = PERSON_AND_ORGANIZATION ( #347, #29 ) ;
#318 = DIRECTION ( 'NONE',  ( 0.000000000000000000, 0.000000000000000000, 1.000000000000000000 ) ) ;
#319 = DIRECTION ( 'NONE',  ( 0.000000000000000000, 0.000000000000000000, 1.000000000000000000 ) ) ;
#320 = VECTOR ( 'NONE', #258, 1000.000000000000000 ) ;
#321 = CARTESIAN_POINT ( 'NONE',  ( 0.000000000000000000, 0.000000000000000000, -1.734723475976804925E-15 ) ) ;
#322 = COORDINATED_UNIVERSAL_TIME_OFFSET ( 9, 0, .AHEAD. ) ;
#323 = DIRECTION ( 'NONE',  ( 1.000000000000000000, 0.000000000000000000, 0.000000000000000000 ) ) ;
#324 = EDGE_CURVE ( 'NONE', #371, #230, #127, .T. ) ;
#325 = DIRECTION ( 'NONE',  ( 0.000000000000000000, -1.000000000000000000, 0.000000000000000000 ) ) ;
#326 = LINE ( 'NONE', #177, #20 ) ;
#327 = LOCAL_TIME ( 8, 59, 0.000000000000000000, #234 ) ;
#328 = VERTEX_POINT ( 'NONE', #221 ) ;
#329 = EDGE_CURVE ( 'NONE', #218, #362, #375, .T. ) ;
#330 = ORIENTED_EDGE ( 'NONE', *, *, #355, .F. ) ;
#331 = LOCAL_TIME ( 8, 59, 0.000000000000000000, #167 ) ;
#332 = EDGE_CURVE ( 'NONE', #360, #348, #185, .T. ) ;
#333 = LINE ( 'NONE', #186, #71 ) ;
#334 = DIRECTION ( 'NONE',  ( 0.000000000000000000, 0.000000000000000000, 1.000000000000000000 ) ) ;
#335 = CARTESIAN_POINT ( 'NONE',  ( 11.00000000000000000, 9.000000000000000000, 10.00000000000000000 ) ) ;
#336 = VECTOR ( 'NONE', #91, 1000.000000000000000 ) ;
#337 = EDGE_LOOP ( 'NONE', ( #108, #137 ) ) ;
#338 = CIRCLE ( 'NONE', #111, 3.500000000000000000 ) ;
#339 = CARTESIAN_POINT ( 'NONE',  ( 11.00000000000000000, -9.000000000000000000, 0.000000000000000000 ) ) ;
#340 = EDGE_CURVE ( 'NONE', #218, #360, #14, .T. ) ;
#341 = DIRECTION ( 'NONE',  ( 1.000000000000000000, 0.000000000000000000, 0.000000000000000000 ) ) ;
#342 = DIRECTION ( 'NONE',  ( 0.000000000000000000, 1.000000000000000000, 0.000000000000000000 ) ) ;
#343 = EDGE_CURVE ( 'NONE', #271, #62, #158, .T. ) ;
#344 = ORIENTED_EDGE ( 'NONE', *, *, #35, .T. ) ;
#345 = FACE_OUTER_BOUND ( 'NONE', #260, .T. ) ;
#346 = ORIENTED_EDGE ( 'NONE', *, *, #19, .T. ) ;
#347 = PERSON ( 'UNSPECIFIED', 'UNSPECIFIED', 'UNSPECIFIED', ('UNSPECIFIED'), ('UNSPECIFIED'), ('UNSPECIFIED') ) ;
#348 = VERTEX_POINT ( 'NONE', #372 ) ;
#349 = DIRECTION ( 'NONE',  ( 0.000000000000000000, 0.000000000000000000, 1.000000000000000000 ) ) ;
#350 = CARTESIAN_POINT ( 'NONE',  ( 11.00000000000000000, -9.000000000000000000, 0.000000000000000000 ) ) ;
#351 = APPROVAL_STATUS ( 'not_yet_approved' ) ;
#352 = DIRECTION ( 'NONE',  ( 1.000000000000000000, 0.000000000000000000, 0.000000000000000000 ) ) ;
#353 = CARTESIAN_POINT ( 'NONE',  ( -5.500000000000000000, 6.735557395310442023E-16, 3.500000000000000000 ) ) ;
#354 = DIRECTION ( 'NONE',  ( 0.000000000000000000, 0.000000000000000000, 1.000000000000000000 ) ) ;
#355 = EDGE_CURVE ( 'NONE', #360, #201, #278, .T. ) ;
#356 = CARTESIAN_POINT ( 'NONE',  ( 0.000000000000000000, 0.000000000000000000, 3.500000000000000000 ) ) ;
#357 = PERSON_AND_ORGANIZATION ( #347, #29 ) ;
#358 = DIRECTION ( 'NONE',  ( 1.000000000000000000, 0.000000000000000000, 0.000000000000000000 ) ) ;
#359 = CARTESIAN_POINT ( 'NONE',  ( 0.000000000000000000, 0.000000000000000000, -1.734723475976804925E-15 ) ) ;
#360 = VERTEX_POINT ( 'NONE', #34 ) ;
#361 = AXIS2_PLACEMENT_3D ( 'NONE', #359, #312, #99 ) ;
#362 = VERTEX_POINT ( 'NONE', #339 ) ;
#363 = APPROVAL ( #351, 'UNSPECIFIED' ) ;
#364 = DIRECTION ( 'NONE',  ( 0.000000000000000000, 0.000000000000000000, 1.000000000000000000 ) ) ;
#365 = CARTESIAN_POINT ( 'NONE',  ( -11.00000000000000000, -9.000000000000000000, 0.000000000000000000 ) ) ;
#366 = CARTESIAN_POINT ( 'NONE',  ( 5.500000000000000000, 0.000000000000000000, 10.00000000000000000 ) ) ;
#367 = ORIENTED_EDGE ( 'NONE', *, *, #63, .F. ) ;
#368 = CIRCLE ( 'NONE', #294, 3.500000000000000000 ) ;
#369 = DIRECTION ( 'NONE',  ( -1.577021341797100025E-16, -1.000000000000000000, 0.000000000000000000 ) ) ;
#370 = AXIS2_PLACEMENT_3D ( 'NONE', #272, #295, #39 ) ;
#371 = VERTEX_POINT ( 'NONE', #124 ) ;
#372 = CARTESIAN_POINT ( 'NONE',  ( -11.00000000000000000, 9.000000000000000000, 10.00000000000000000 ) ) ;
#373 = AXIS2_PLACEMENT_3D ( 'NONE', #81, #208, #241 ) ;
#374 = CC_DESIGN_PERSON_AND_ORGANIZATION_ASSIGNMENT ( #196, #231, ( #10 ) ) ;
#375 = LINE ( 'NONE', #226, #102 ) ;
#376 = DIRECTION ( 'NONE',  ( 0.000000000000000000, 0.000000000000000000, -1.000000000000000000 ) ) ;
#377 = APPROVAL ( #101, 'UNSPECIFIED' ) ;
#378 = LOCAL_TIME ( 8, 59, 0.000000000000000000, #322 ) ;
#379 = DIRECTION ( 'NONE',  ( 0.000000000000000000, -1.000000000000000000, 0.000000000000000000 ) ) ;
#380 = ORIENTED_EDGE ( 'NONE', *, *, #145, .T. ) ;
#381 = CALENDAR_DATE ( 2021, 25, 10 ) ;
#382 = ORIENTED_EDGE ( 'NONE', *, *, #15, .F. ) ;
#383 = DATE_AND_TIME ( #188, #285 ) ;
#384 = AXIS2_PLACEMENT_3D ( 'NONE', #79, #354, #46 ) ;
#385 = ORIENTED_EDGE ( 'NONE', *, *, #229, .F. ) ;
#386 = FACE_OUTER_BOUND ( 'NONE', #4, .T. ) ;
#387 = DIRECTION ( 'NONE',  ( 0.000000000000000000, 0.000000000000000000, 1.000000000000000000 ) ) ;
#388 = ORIENTED_EDGE ( 'NONE', *, *, #300, .F. ) ;
#389 = LINE ( 'NONE', #293, #193 ) ;
#390 = CYLINDRICAL_SURFACE ( 'NONE', #384, 5.500000000000000000 ) ;
#391 = PLANE ( 'NONE',  #239 ) ;
ENDSEC;
END-ISO-10303-21;
