ISO-10303-21;
HEADER;
FILE_DESCRIPTION (( 'STEP AP203' ),
    '1' );
FILE_NAME ('bj300-12063.STEP',
    '2021-10-24T23:51:25',
    ( '' ),
    ( '' ),
    'SwSTEP 2.0',
    'SolidWorks 2020',
    '' );
FILE_SCHEMA (( 'CONFIG_CONTROL_DESIGN' ));
ENDSEC;

DATA;
#1 = ORIENTED_EDGE ( 'NONE', *, *, #110, .F. ) ;
#2 = CARTESIAN_POINT ( 'NONE',  ( -20.00000000000000000, 2.449293598294706513E-15, 63.00000000000000000 ) ) ;
#3 = EDGE_LOOP ( 'NONE', ( #153, #86, #93, #208 ) ) ;
#4 = EDGE_CURVE ( 'NONE', #117, #323, #91, .T. ) ;
#5 = EDGE_CURVE ( 'NONE', #49, #166, #215, .T. ) ;
#6 = DIRECTION ( 'NONE',  ( 0.000000000000000000, 0.000000000000000000, 1.000000000000000000 ) ) ;
#7 = AXIS2_PLACEMENT_3D ( 'NONE', #113, #243, #325 ) ;
#8 = AXIS2_PLACEMENT_3D ( 'NONE', #67, #105, #76 ) ;
#9 = FACE_OUTER_BOUND ( 'NONE', #32, .T. ) ;
#10 = PLANE ( 'NONE',  #290 ) ;
#11 = PERSON_AND_ORGANIZATION ( #172, #53 ) ;
#12 = CARTESIAN_POINT ( 'NONE',  ( 10.00000000000000000, 0.000000000000000000, 12.00000000000000000 ) ) ;
#13 = ADVANCED_FACE ( 'NONE', ( #149 ), #196, .F. ) ;
#14 = CARTESIAN_POINT ( 'NONE',  ( 0.000000000000000000, 0.000000000000000000, 63.00000000000000000 ) ) ;
#15 = AXIS2_PLACEMENT_3D ( 'NONE', #198, #173, #145 ) ;
#16 = DIRECTION ( 'NONE',  ( 0.000000000000000000, 0.000000000000000000, 1.000000000000000000 ) ) ;
#17 = VERTEX_POINT ( 'NONE', #12 ) ;
#18 = ORIENTED_EDGE ( 'NONE', *, *, #4, .T. ) ;
#19 = DATE_AND_TIME ( #218, #268 ) ;
#20 = CARTESIAN_POINT ( 'NONE',  ( -20.00000000000000000, 2.449293598294706513E-15, 0.000000000000000000 ) ) ;
#21 = CARTESIAN_POINT ( 'NONE',  ( 0.000000000000000000, 0.000000000000000000, 40.00000000000000000 ) ) ;
#22 = VERTEX_POINT ( 'NONE', #199 ) ;
#23 = CC_DESIGN_PERSON_AND_ORGANIZATION_ASSIGNMENT ( #43, #87, ( #275 ) ) ;
#24 = EDGE_LOOP ( 'NONE', ( #94, #111 ) ) ;
#25 = AXIS2_PLACEMENT_3D ( 'NONE', #47, #157, #261 ) ;
#26 = EDGE_LOOP ( 'NONE', ( #273, #120, #44, #194 ) ) ;
#27 = DIRECTION ( 'NONE',  ( 1.000000000000000000, 0.000000000000000000, 0.000000000000000000 ) ) ;
#28 = CYLINDRICAL_SURFACE ( 'NONE', #222, 20.00000000000000000 ) ;
#29 = FACE_BOUND ( 'NONE', #219, .T. ) ;
#30 = CC_DESIGN_APPROVAL ( #292, ( #56 ) ) ;
#31 = CARTESIAN_POINT ( 'NONE',  ( -10.00000000000000000, 1.224646799147353256E-15, 63.00000000000000000 ) ) ;
#32 = EDGE_LOOP ( 'NONE', ( #282, #78 ) ) ;
#33 =( LENGTH_UNIT ( ) NAMED_UNIT ( * ) SI_UNIT ( .MILLI., .METRE. ) );
#34 = AXIS2_PLACEMENT_3D ( 'NONE', #14, #122, #221 ) ;
#35 = EDGE_CURVE ( 'NONE', #49, #98, #183, .T. ) ;
#36 = DIRECTION ( 'NONE',  ( -1.000000000000000000, 0.000000000000000000, 0.000000000000000000 ) ) ;
#37 = CARTESIAN_POINT ( 'NONE',  ( 10.00000000000000000, 0.000000000000000000, 40.00000000000000000 ) ) ;
#38 = CARTESIAN_POINT ( 'NONE',  ( 0.000000000000000000, 0.000000000000000000, 0.000000000000000000 ) ) ;
#39 = ORIENTED_EDGE ( 'NONE', *, *, #203, .T. ) ;
#40 = APPROVAL_STATUS ( 'not_yet_approved' ) ;
#41 = CIRCLE ( 'NONE', #90, 10.00000000000000000 ) ;
#42 = CYLINDRICAL_SURFACE ( 'NONE', #15, 10.00000000000000000 ) ;
#43 = PERSON_AND_ORGANIZATION ( #172, #53 ) ;
#44 = ORIENTED_EDGE ( 'NONE', *, *, #58, .T. ) ;
#45 = DIRECTION ( 'NONE',  ( 0.000000000000000000, 0.000000000000000000, -1.000000000000000000 ) ) ;
#46 = CIRCLE ( 'NONE', #274, 7.000000000000000000 ) ;
#47 = CARTESIAN_POINT ( 'NONE',  ( 0.000000000000000000, 0.000000000000000000, 12.00000000000000000 ) ) ;
#48 = AXIS2_PLACEMENT_3D ( 'NONE', #80, #6, #204 ) ;
#49 = VERTEX_POINT ( 'NONE', #296 ) ;
#50 = CARTESIAN_POINT ( 'NONE',  ( 0.000000000000000000, 0.000000000000000000, 40.00000000000000000 ) ) ;
#51 = DIRECTION ( 'NONE',  ( 1.000000000000000000, 0.000000000000000000, 0.000000000000000000 ) ) ;
#52 = DIRECTION ( 'NONE',  ( 0.000000000000000000, 0.000000000000000000, 1.000000000000000000 ) ) ;
#53 = ORGANIZATION ( 'UNSPECIFIED', 'UNSPECIFIED', '' ) ;
#54 = DIRECTION ( 'NONE',  ( -1.000000000000000000, 0.000000000000000000, 0.000000000000000000 ) ) ;
#55 = EDGE_CURVE ( 'NONE', #225, #132, #63, .T. ) ;
#56 = PRODUCT_DEFINITION_FORMATION_WITH_SPECIFIED_SOURCE ( 'ANY', '', #140, .NOT_KNOWN. ) ;
#57 = CARTESIAN_POINT ( 'NONE',  ( 0.000000000000000000, 0.000000000000000000, 63.00000000000000000 ) ) ;
#58 = EDGE_CURVE ( 'NONE', #17, #132, #62, .T. ) ;
#59 = DIRECTION ( 'NONE',  ( 1.000000000000000000, 0.000000000000000000, 0.000000000000000000 ) ) ;
#60 = CALENDAR_DATE ( 2021, 25, 10 ) ;
#61 = DESIGN_CONTEXT ( 'detailed design', #175, 'design' ) ;
#62 = LINE ( 'NONE', #37, #147 ) ;
#63 = CIRCLE ( 'NONE', #95, 10.00000000000000000 ) ;
#64 = VECTOR ( 'NONE', #176, 1000.000000000000000 ) ;
#65 = CARTESIAN_POINT ( 'NONE',  ( -7.000000000000000000, 8.572527594031473190E-16, 0.000000000000000000 ) ) ;
#66 = DATE_AND_TIME ( #60, #193 ) ;
#67 = CARTESIAN_POINT ( 'NONE',  ( 0.000000000000000000, 0.000000000000000000, 40.00000000000000000 ) ) ;
#68 = SECURITY_CLASSIFICATION_LEVEL ( 'unclassified' ) ;
#69 = ORIENTED_EDGE ( 'NONE', *, *, #35, .F. ) ;
#70 = AXIS2_PLACEMENT_3D ( 'NONE', #88, #16, #278 ) ;
#71 = VERTEX_POINT ( 'NONE', #65 ) ;
#72 = ORIENTED_EDGE ( 'NONE', *, *, #205, .T. ) ;
#73 = CC_DESIGN_DATE_AND_TIME_ASSIGNMENT ( #209, #260, ( #254 ) ) ;
#74 = UNCERTAINTY_MEASURE_WITH_UNIT (LENGTH_MEASURE( 1.000000000000000082E-05 ), #33, 'distance_accuracy_value', 'NONE');
#75 = CARTESIAN_POINT ( 'NONE',  ( -20.00000000000000000, 2.449293598294706513E-15, 40.00000000000000000 ) ) ;
#76 = DIRECTION ( 'NONE',  ( 1.000000000000000000, 0.000000000000000000, 0.000000000000000000 ) ) ;
#77 = LOCAL_TIME ( 8, 51, 25.00000000000000000, #251 ) ;
#78 = ORIENTED_EDGE ( 'NONE', *, *, #119, .T. ) ;
#79 = DIRECTION ( 'NONE',  ( 1.000000000000000000, 0.000000000000000000, 0.000000000000000000 ) ) ;
#80 = CARTESIAN_POINT ( 'NONE',  ( 0.000000000000000000, 0.000000000000000000, 12.00000000000000000 ) ) ;
#81 = ADVANCED_FACE ( 'NONE', ( #321 ), #42, .F. ) ;
#82 = AXIS2_PLACEMENT_3D ( 'NONE', #108, #315, #266 ) ;
#83 = PERSON_AND_ORGANIZATION_ROLE ( 'design_owner' ) ;
#84 = DIRECTION ( 'NONE',  ( 0.000000000000000000, 0.000000000000000000, 1.000000000000000000 ) ) ;
#85 = ORIENTED_EDGE ( 'NONE', *, *, #203, .F. ) ;
#86 = ORIENTED_EDGE ( 'NONE', *, *, #192, .T. ) ;
#87 = PERSON_AND_ORGANIZATION_ROLE ( 'classification_officer' ) ;
#88 = CARTESIAN_POINT ( 'NONE',  ( 0.000000000000000000, 0.000000000000000000, 40.00000000000000000 ) ) ;
#89 = CIRCLE ( 'NONE', #112, 10.00000000000000000 ) ;
#90 = AXIS2_PLACEMENT_3D ( 'NONE', #207, #158, #181 ) ;
#91 = LINE ( 'NONE', #276, #235 ) ;
#92 = DIRECTION ( 'NONE',  ( 0.000000000000000000, 0.000000000000000000, 1.000000000000000000 ) ) ;
#93 = ORIENTED_EDGE ( 'NONE', *, *, #121, .F. ) ;
#94 = ORIENTED_EDGE ( 'NONE', *, *, #150, .F. ) ;
#95 = AXIS2_PLACEMENT_3D ( 'NONE', #57, #271, #59 ) ;
#96 = CIRCLE ( 'NONE', #236, 20.00000000000000000 ) ;
#97 = PERSON_AND_ORGANIZATION_ROLE ( 'creator' ) ;
#98 = VERTEX_POINT ( 'NONE', #20 ) ;
#99 = COORDINATED_UNIVERSAL_TIME_OFFSET ( 9, 0, .AHEAD. ) ;
#100 = CARTESIAN_POINT ( 'NONE',  ( -10.00000000000000000, 1.224646799147353256E-15, 12.00000000000000000 ) ) ;
#101 = VECTOR ( 'NONE', #151, 1000.000000000000000 ) ;
#102 = DIRECTION ( 'NONE',  ( 0.000000000000000000, 0.000000000000000000, 1.000000000000000000 ) ) ;
#103 = DIRECTION ( 'NONE',  ( 0.000000000000000000, 0.000000000000000000, 1.000000000000000000 ) ) ;
#104 = PRODUCT_DEFINITION_SHAPE ( 'NONE', 'NONE',  #254 ) ;
#105 = DIRECTION ( 'NONE',  ( 0.000000000000000000, 0.000000000000000000, 1.000000000000000000 ) ) ;
#106 = EDGE_LOOP ( 'NONE', ( #109, #284, #255, #126 ) ) ;
#107 = CC_DESIGN_SECURITY_CLASSIFICATION ( #275, ( #56 ) ) ;
#108 = CARTESIAN_POINT ( 'NONE',  ( 0.000000000000000000, 0.000000000000000000, 0.000000000000000000 ) ) ;
#109 = ORIENTED_EDGE ( 'NONE', *, *, #214, .F. ) ;
#110 = EDGE_CURVE ( 'NONE', #132, #225, #89, .T. ) ;
#111 = ORIENTED_EDGE ( 'NONE', *, *, #267, .F. ) ;
#112 = AXIS2_PLACEMENT_3D ( 'NONE', #242, #169, #240 ) ;
#113 = CARTESIAN_POINT ( 'NONE',  ( 0.000000000000000000, 0.000000000000000000, 63.00000000000000000 ) ) ;
#114 = ORIENTED_EDGE ( 'NONE', *, *, #302, .T. ) ;
#115 = AXIS2_PLACEMENT_3D ( 'NONE', #212, #103, #258 ) ;
#116 = CARTESIAN_POINT ( 'NONE',  ( 10.00000000000000000, 0.000000000000000000, 12.00000000000000000 ) ) ;
#117 = VERTEX_POINT ( 'NONE', #167 ) ;
#118 = APPROVAL_ROLE ( '' ) ;
#119 = EDGE_CURVE ( 'NONE', #197, #166, #142, .T. ) ;
#120 = ORIENTED_EDGE ( 'NONE', *, *, #159, .F. ) ;
#121 = EDGE_CURVE ( 'NONE', #166, #197, #154, .T. ) ;
#122 = DIRECTION ( 'NONE',  ( 0.000000000000000000, 0.000000000000000000, 1.000000000000000000 ) ) ;
#123 = ADVANCED_FACE ( 'NONE', ( #201, #303 ), #165, .F. ) ;
#124 = AXIS2_PLACEMENT_3D ( 'NONE', #21, #311, #27 ) ;
#125 = DIRECTION ( 'NONE',  ( 1.000000000000000000, 0.000000000000000000, 0.000000000000000000 ) ) ;
#126 = ORIENTED_EDGE ( 'NONE', *, *, #58, .F. ) ;
#127 = ORIENTED_EDGE ( 'NONE', *, *, #214, .T. ) ;
#128 = ORIENTED_EDGE ( 'NONE', *, *, #5, .T. ) ;
#129 = APPROVAL_STATUS ( 'not_yet_approved' ) ;
#130 = APPROVAL_PERSON_ORGANIZATION ( #177, #237, #118 ) ;
#131 = APPLICATION_CONTEXT ( 'configuration controlled 3d designs of mechanical parts and assemblies' ) ;
#132 = VERTEX_POINT ( 'NONE', #217 ) ;
#133 = FACE_OUTER_BOUND ( 'NONE', #220, .T. ) ;
#134 = ORIENTED_EDGE ( 'NONE', *, *, #249, .F. ) ;
#135 = CALENDAR_DATE ( 2021, 25, 10 ) ;
#136 = CARTESIAN_POINT ( 'NONE',  ( 20.00000000000000000, 0.000000000000000000, 63.00000000000000000 ) ) ;
#137 = PERSON_AND_ORGANIZATION ( #172, #53 ) ;
#138 = DIRECTION ( 'NONE',  ( 1.000000000000000000, 0.000000000000000000, 0.000000000000000000 ) ) ;
#139 = CARTESIAN_POINT ( 'NONE',  ( 0.000000000000000000, 0.000000000000000000, 40.00000000000000000 ) ) ;
#140 = PRODUCT ( 'bj300-12063', 'bj300-12063', '', ( #164 ) ) ;
#141 = CARTESIAN_POINT ( 'NONE',  ( 7.000000000000000000, 0.000000000000000000, 12.00000000000000000 ) ) ;
#142 = CIRCLE ( 'NONE', #34, 20.00000000000000000 ) ;
#143 = CIRCLE ( 'NONE', #25, 7.000000000000000000 ) ;
#144 = ORIENTED_EDGE ( 'NONE', *, *, #150, .T. ) ;
#145 = DIRECTION ( 'NONE',  ( 1.000000000000000000, 0.000000000000000000, 0.000000000000000000 ) ) ;
#146 = APPROVAL_DATE_TIME ( #19, #292 ) ;
#147 = VECTOR ( 'NONE', #245, 1000.000000000000000 ) ;
#148 = EDGE_LOOP ( 'NONE', ( #308, #39 ) ) ;
#149 = FACE_OUTER_BOUND ( 'NONE', #106, .T. ) ;
#150 = EDGE_CURVE ( 'NONE', #323, #22, #46, .T. ) ;
#151 = DIRECTION ( 'NONE',  ( 0.000000000000000000, 0.000000000000000000, 1.000000000000000000 ) ) ;
#152 = DIRECTION ( 'NONE',  ( 1.000000000000000000, 0.000000000000000000, 0.000000000000000000 ) ) ;
#153 = ORIENTED_EDGE ( 'NONE', *, *, #35, .T. ) ;
#154 = CIRCLE ( 'NONE', #7, 20.00000000000000000 ) ;
#155 = ORIENTED_EDGE ( 'NONE', *, *, #302, .F. ) ;
#156 =( GEOMETRIC_REPRESENTATION_CONTEXT ( 3 ) GLOBAL_UNCERTAINTY_ASSIGNED_CONTEXT ( ( #74 ) ) GLOBAL_UNIT_ASSIGNED_CONTEXT ( ( #33, #314, #291 ) ) REPRESENTATION_CONTEXT ( 'NONE', 'WORKASPACE' ) );
#157 = DIRECTION ( 'NONE',  ( 0.000000000000000000, 0.000000000000000000, 1.000000000000000000 ) ) ;
#158 = DIRECTION ( 'NONE',  ( 0.000000000000000000, 0.000000000000000000, 1.000000000000000000 ) ) ;
#159 = EDGE_CURVE ( 'NONE', #17, #206, #313, .T. ) ;
#160 = ADVANCED_FACE ( 'NONE', ( #187 ), #289, .F. ) ;
#161 = FACE_OUTER_BOUND ( 'NONE', #253, .T. ) ;
#162 = DIRECTION ( 'NONE',  ( 1.000000000000000000, 0.000000000000000000, 0.000000000000000000 ) ) ;
#163 = APPLICATION_PROTOCOL_DEFINITION ( 'international standard', 'config_control_design', 1994, #131 ) ;
#164 = MECHANICAL_CONTEXT ( 'NONE', #131, 'mechanical' ) ;
#165 = PLANE ( 'NONE',  #191 ) ;
#166 = VERTEX_POINT ( 'NONE', #136 ) ;
#167 = CARTESIAN_POINT ( 'NONE',  ( 7.000000000000000000, 0.000000000000000000, 0.000000000000000000 ) ) ;
#168 = SHAPE_DEFINITION_REPRESENTATION ( #104, #234 ) ;
#169 = DIRECTION ( 'NONE',  ( 0.000000000000000000, 0.000000000000000000, 1.000000000000000000 ) ) ;
#170 = AXIS2_PLACEMENT_3D ( 'NONE', #327, #233, #79 ) ;
#171 = CC_DESIGN_PERSON_AND_ORGANIZATION_ASSIGNMENT ( #174, #304, ( #56 ) ) ;
#172 = PERSON ( 'UNSPECIFIED', 'UNSPECIFIED', 'UNSPECIFIED', ('UNSPECIFIED'), ('UNSPECIFIED'), ('UNSPECIFIED') ) ;
#173 = DIRECTION ( 'NONE',  ( 0.000000000000000000, 0.000000000000000000, 1.000000000000000000 ) ) ;
#174 = PERSON_AND_ORGANIZATION ( #172, #53 ) ;
#175 = APPLICATION_CONTEXT ( 'configuration controlled 3d designs of mechanical parts and assemblies' ) ;
#176 = DIRECTION ( 'NONE',  ( 0.000000000000000000, 0.000000000000000000, 1.000000000000000000 ) ) ;
#177 = PERSON_AND_ORGANIZATION ( #172, #53 ) ;
#178 = ORIENTED_EDGE ( 'NONE', *, *, #159, .T. ) ;
#179 = CLOSED_SHELL ( 'NONE', ( #13, #185, #280, #123, #160, #246, #238, #305, #81 ) ) ;
#180 = LOCAL_TIME ( 8, 51, 25.00000000000000000, #326 ) ;
#181 = DIRECTION ( 'NONE',  ( 1.000000000000000000, 0.000000000000000000, 0.000000000000000000 ) ) ;
#182 = ORIENTED_EDGE ( 'NONE', *, *, #267, .T. ) ;
#183 = CIRCLE ( 'NONE', #294, 20.00000000000000000 ) ;
#184 = CARTESIAN_POINT ( 'NONE',  ( -10.00000000000000000, 1.224646799147353256E-15, 40.00000000000000000 ) ) ;
#185 = ADVANCED_FACE ( 'NONE', ( #263 ), #259, .T. ) ;
#186 = PERSON_AND_ORGANIZATION ( #172, #53 ) ;
#187 = FACE_OUTER_BOUND ( 'NONE', #213, .T. ) ;
#188 = FACE_BOUND ( 'NONE', #148, .T. ) ;
#189 = ORIENTED_EDGE ( 'NONE', *, *, #192, .F. ) ;
#190 = APPROVAL_STATUS ( 'not_yet_approved' ) ;
#191 = AXIS2_PLACEMENT_3D ( 'NONE', #116, #269, #36 ) ;
#192 = EDGE_CURVE ( 'NONE', #98, #197, #307, .T. ) ;
#193 = LOCAL_TIME ( 8, 51, 25.00000000000000000, #301 ) ;
#194 = ORIENTED_EDGE ( 'NONE', *, *, #110, .T. ) ;
#195 = APPROVAL_DATE_TIME ( #66, #237 ) ;
#196 = CYLINDRICAL_SURFACE ( 'NONE', #70, 10.00000000000000000 ) ;
#197 = VERTEX_POINT ( 'NONE', #2 ) ;
#198 = CARTESIAN_POINT ( 'NONE',  ( 0.000000000000000000, 0.000000000000000000, 40.00000000000000000 ) ) ;
#199 = CARTESIAN_POINT ( 'NONE',  ( -7.000000000000000000, 8.572527594031473190E-16, 12.00000000000000000 ) ) ;
#200 = PERSON_AND_ORGANIZATION_ROLE ( 'design_supplier' ) ;
#201 = FACE_BOUND ( 'NONE', #24, .T. ) ;
#202 = COORDINATED_UNIVERSAL_TIME_OFFSET ( 9, 0, .AHEAD. ) ;
#203 = EDGE_CURVE ( 'NONE', #71, #117, #226, .T. ) ;
#204 = DIRECTION ( 'NONE',  ( 1.000000000000000000, 0.000000000000000000, 0.000000000000000000 ) ) ;
#205 = EDGE_CURVE ( 'NONE', #98, #49, #96, .T. ) ;
#206 = VERTEX_POINT ( 'NONE', #100 ) ;
#207 = CARTESIAN_POINT ( 'NONE',  ( 0.000000000000000000, 0.000000000000000000, 12.00000000000000000 ) ) ;
#208 = ORIENTED_EDGE ( 'NONE', *, *, #5, .F. ) ;
#209 = DATE_AND_TIME ( #287, #77 ) ;
#210 = CARTESIAN_POINT ( 'NONE',  ( -7.000000000000000000, 8.572527594031473190E-16, 40.00000000000000000 ) ) ;
#211 = CARTESIAN_POINT ( 'NONE',  ( 0.000000000000000000, 0.000000000000000000, 0.000000000000000000 ) ) ;
#212 = CARTESIAN_POINT ( 'NONE',  ( 0.000000000000000000, 0.000000000000000000, 0.000000000000000000 ) ) ;
#213 = EDGE_LOOP ( 'NONE', ( #155, #134, #18, #144 ) ) ;
#214 = EDGE_CURVE ( 'NONE', #206, #17, #41, .T. ) ;
#215 = LINE ( 'NONE', #272, #101 ) ;
#216 = APPROVAL_PERSON_ORGANIZATION ( #11, #322, #257 ) ;
#217 = CARTESIAN_POINT ( 'NONE',  ( 10.00000000000000000, 0.000000000000000000, 63.00000000000000000 ) ) ;
#218 = CALENDAR_DATE ( 2021, 25, 10 ) ;
#219 = EDGE_LOOP ( 'NONE', ( #1, #319 ) ) ;
#220 = EDGE_LOOP ( 'NONE', ( #85, #114, #182, #328 ) ) ;
#221 = DIRECTION ( 'NONE',  ( 1.000000000000000000, 0.000000000000000000, 0.000000000000000000 ) ) ;
#222 = AXIS2_PLACEMENT_3D ( 'NONE', #139, #102, #138 ) ;
#223 = FACE_OUTER_BOUND ( 'NONE', #297, .T. ) ;
#224 = EDGE_LOOP ( 'NONE', ( #178, #127 ) ) ;
#225 = VERTEX_POINT ( 'NONE', #31 ) ;
#226 = CIRCLE ( 'NONE', #115, 7.000000000000000000 ) ;
#227 = DATE_AND_TIME ( #135, #324 ) ;
#228 = PLANE ( 'NONE',  #295 ) ;
#229 = APPROVAL_DATE_TIME ( #227, #322 ) ;
#230 = DIRECTION ( 'NONE',  ( 0.000000000000000000, 0.000000000000000000, 1.000000000000000000 ) ) ;
#231 = APPROVAL_PERSON_ORGANIZATION ( #137, #292, #277 ) ;
#232 = LINE ( 'NONE', #184, #248 ) ;
#233 = DIRECTION ( 'NONE',  ( 0.000000000000000000, 0.000000000000000000, 1.000000000000000000 ) ) ;
#234 = ADVANCED_BREP_SHAPE_REPRESENTATION ( 'bj300-12063', ( #252, #82 ), #156 ) ;
#235 = VECTOR ( 'NONE', #316, 1000.000000000000000 ) ;
#236 = AXIS2_PLACEMENT_3D ( 'NONE', #211, #312, #51 ) ;
#237 = APPROVAL ( #40, 'UNSPECIFIED' ) ;
#238 = ADVANCED_FACE ( 'NONE', ( #161 ), #28, .T. ) ;
#239 = ORIENTED_EDGE ( 'NONE', *, *, #119, .F. ) ;
#240 = DIRECTION ( 'NONE',  ( 1.000000000000000000, 0.000000000000000000, 0.000000000000000000 ) ) ;
#241 = PERSON_AND_ORGANIZATION ( #172, #53 ) ;
#242 = CARTESIAN_POINT ( 'NONE',  ( 0.000000000000000000, 0.000000000000000000, 63.00000000000000000 ) ) ;
#243 = DIRECTION ( 'NONE',  ( 0.000000000000000000, 0.000000000000000000, 1.000000000000000000 ) ) ;
#244 = EDGE_CURVE ( 'NONE', #206, #225, #232, .T. ) ;
#245 = DIRECTION ( 'NONE',  ( 0.000000000000000000, 0.000000000000000000, 1.000000000000000000 ) ) ;
#246 = ADVANCED_FACE ( 'NONE', ( #223, #188 ), #228, .F. ) ;
#247 = DIRECTION ( 'NONE',  ( 0.000000000000000000, 0.000000000000000000, 1.000000000000000000 ) ) ;
#248 = VECTOR ( 'NONE', #247, 1000.000000000000000 ) ;
#249 = EDGE_CURVE ( 'NONE', #117, #71, #256, .T. ) ;
#250 = DATE_AND_TIME ( #299, #180 ) ;
#251 = COORDINATED_UNIVERSAL_TIME_OFFSET ( 9, 0, .AHEAD. ) ;
#252 = MANIFOLD_SOLID_BREP ( 'Imported1', #179 ) ;
#253 = EDGE_LOOP ( 'NONE', ( #189, #72, #128, #239 ) ) ;
#254 = PRODUCT_DEFINITION ( 'UNKNOWN', '', #56, #61 ) ;
#255 = ORIENTED_EDGE ( 'NONE', *, *, #55, .T. ) ;
#256 = CIRCLE ( 'NONE', #170, 7.000000000000000000 ) ;
#257 = APPROVAL_ROLE ( '' ) ;
#258 = DIRECTION ( 'NONE',  ( 1.000000000000000000, 0.000000000000000000, 0.000000000000000000 ) ) ;
#259 = CYLINDRICAL_SURFACE ( 'NONE', #262, 20.00000000000000000 ) ;
#260 = DATE_TIME_ROLE ( 'creation_date' ) ;
#261 = DIRECTION ( 'NONE',  ( 1.000000000000000000, 0.000000000000000000, 0.000000000000000000 ) ) ;
#262 = AXIS2_PLACEMENT_3D ( 'NONE', #50, #230, #152 ) ;
#263 = FACE_OUTER_BOUND ( 'NONE', #3, .T. ) ;
#264 = PERSON_AND_ORGANIZATION ( #172, #53 ) ;
#265 = CC_DESIGN_PERSON_AND_ORGANIZATION_ASSIGNMENT ( #186, #97, ( #254 ) ) ;
#266 = DIRECTION ( 'NONE',  ( 1.000000000000000000, 0.000000000000000000, 0.000000000000000000 ) ) ;
#267 = EDGE_CURVE ( 'NONE', #22, #323, #143, .T. ) ;
#268 = LOCAL_TIME ( 8, 51, 25.00000000000000000, #202 ) ;
#269 = DIRECTION ( 'NONE',  ( 0.000000000000000000, 0.000000000000000000, -1.000000000000000000 ) ) ;
#270 = PRODUCT_RELATED_PRODUCT_CATEGORY ( 'detail', '', ( #140 ) ) ;
#271 = DIRECTION ( 'NONE',  ( 0.000000000000000000, 0.000000000000000000, 1.000000000000000000 ) ) ;
#272 = CARTESIAN_POINT ( 'NONE',  ( 20.00000000000000000, 0.000000000000000000, 40.00000000000000000 ) ) ;
#273 = ORIENTED_EDGE ( 'NONE', *, *, #244, .F. ) ;
#274 = AXIS2_PLACEMENT_3D ( 'NONE', #318, #92, #125 ) ;
#275 = SECURITY_CLASSIFICATION ( '', '', #68 ) ;
#276 = CARTESIAN_POINT ( 'NONE',  ( 7.000000000000000000, 0.000000000000000000, 40.00000000000000000 ) ) ;
#277 = APPROVAL_ROLE ( '' ) ;
#278 = DIRECTION ( 'NONE',  ( 1.000000000000000000, 0.000000000000000000, 0.000000000000000000 ) ) ;
#279 = CC_DESIGN_PERSON_AND_ORGANIZATION_ASSIGNMENT ( #241, #200, ( #56 ) ) ;
#280 = ADVANCED_FACE ( 'NONE', ( #133 ), #309, .F. ) ;
#281 = CARTESIAN_POINT ( 'NONE',  ( 20.00000000000000000, 0.000000000000000000, 63.00000000000000000 ) ) ;
#282 = ORIENTED_EDGE ( 'NONE', *, *, #121, .T. ) ;
#283 = CARTESIAN_POINT ( 'NONE',  ( 7.000000000000000000, 0.000000000000000000, 0.000000000000000000 ) ) ;
#284 = ORIENTED_EDGE ( 'NONE', *, *, #244, .T. ) ;
#285 = CC_DESIGN_APPROVAL ( #322, ( #254 ) ) ;
#286 = LINE ( 'NONE', #210, #310 ) ;
#287 = CALENDAR_DATE ( 2021, 25, 10 ) ;
#288 = DIRECTION ( 'NONE',  ( 0.000000000000000000, 0.000000000000000000, 1.000000000000000000 ) ) ;
#289 = CYLINDRICAL_SURFACE ( 'NONE', #124, 7.000000000000000000 ) ;
#290 = AXIS2_PLACEMENT_3D ( 'NONE', #281, #45, #54 ) ;
#291 =( NAMED_UNIT ( * ) SI_UNIT ( $, .STERADIAN. ) SOLID_ANGLE_UNIT ( ) );
#292 = APPROVAL ( #190, 'UNSPECIFIED' ) ;
#293 = APPLICATION_PROTOCOL_DEFINITION ( 'international standard', 'config_control_design', 1994, #175 ) ;
#294 = AXIS2_PLACEMENT_3D ( 'NONE', #38, #84, #300 ) ;
#295 = AXIS2_PLACEMENT_3D ( 'NONE', #283, #52, #162 ) ;
#296 = CARTESIAN_POINT ( 'NONE',  ( 20.00000000000000000, 0.000000000000000000, 0.000000000000000000 ) ) ;
#297 = EDGE_LOOP ( 'NONE', ( #69, #298 ) ) ;
#298 = ORIENTED_EDGE ( 'NONE', *, *, #205, .F. ) ;
#299 = CALENDAR_DATE ( 2021, 25, 10 ) ;
#300 = DIRECTION ( 'NONE',  ( 1.000000000000000000, 0.000000000000000000, 0.000000000000000000 ) ) ;
#301 = COORDINATED_UNIVERSAL_TIME_OFFSET ( 9, 0, .AHEAD. ) ;
#302 = EDGE_CURVE ( 'NONE', #71, #22, #286, .T. ) ;
#303 = FACE_OUTER_BOUND ( 'NONE', #224, .T. ) ;
#304 = PERSON_AND_ORGANIZATION_ROLE ( 'creator' ) ;
#305 = ADVANCED_FACE ( 'NONE', ( #29, #9 ), #10, .F. ) ;
#306 = CC_DESIGN_APPROVAL ( #237, ( #275 ) ) ;
#307 = LINE ( 'NONE', #75, #64 ) ;
#308 = ORIENTED_EDGE ( 'NONE', *, *, #249, .T. ) ;
#309 = CYLINDRICAL_SURFACE ( 'NONE', #8, 7.000000000000000000 ) ;
#310 = VECTOR ( 'NONE', #288, 1000.000000000000000 ) ;
#311 = DIRECTION ( 'NONE',  ( 0.000000000000000000, 0.000000000000000000, 1.000000000000000000 ) ) ;
#312 = DIRECTION ( 'NONE',  ( 0.000000000000000000, 0.000000000000000000, 1.000000000000000000 ) ) ;
#313 = CIRCLE ( 'NONE', #48, 10.00000000000000000 ) ;
#314 =( NAMED_UNIT ( * ) PLANE_ANGLE_UNIT ( ) SI_UNIT ( $, .RADIAN. ) );
#315 = DIRECTION ( 'NONE',  ( 0.000000000000000000, 0.000000000000000000, 1.000000000000000000 ) ) ;
#316 = DIRECTION ( 'NONE',  ( 0.000000000000000000, 0.000000000000000000, 1.000000000000000000 ) ) ;
#317 = CC_DESIGN_PERSON_AND_ORGANIZATION_ASSIGNMENT ( #264, #83, ( #140 ) ) ;
#318 = CARTESIAN_POINT ( 'NONE',  ( 0.000000000000000000, 0.000000000000000000, 12.00000000000000000 ) ) ;
#319 = ORIENTED_EDGE ( 'NONE', *, *, #55, .F. ) ;
#320 = DATE_TIME_ROLE ( 'classification_date' ) ;
#321 = FACE_OUTER_BOUND ( 'NONE', #26, .T. ) ;
#322 = APPROVAL ( #129, 'UNSPECIFIED' ) ;
#323 = VERTEX_POINT ( 'NONE', #141 ) ;
#324 = LOCAL_TIME ( 8, 51, 25.00000000000000000, #99 ) ;
#325 = DIRECTION ( 'NONE',  ( 1.000000000000000000, 0.000000000000000000, 0.000000000000000000 ) ) ;
#326 = COORDINATED_UNIVERSAL_TIME_OFFSET ( 9, 0, .AHEAD. ) ;
#327 = CARTESIAN_POINT ( 'NONE',  ( 0.000000000000000000, 0.000000000000000000, 0.000000000000000000 ) ) ;
#328 = ORIENTED_EDGE ( 'NONE', *, *, #4, .F. ) ;
#329 = CC_DESIGN_DATE_AND_TIME_ASSIGNMENT ( #250, #320, ( #275 ) ) ;
ENDSEC;
END-ISO-10303-21;
