ISO-10303-21;
HEADER;
FILE_DESCRIPTION (( 'STEP AP203' ),
    '1' );
FILE_NAME ('bj623-08001.STEP',
    '2021-10-24T23:57:17',
    ( '' ),
    ( '' ),
    'SwSTEP 2.0',
    'SolidWorks 2020',
    '' );
FILE_SCHEMA (( 'CONFIG_CONTROL_DESIGN' ));
ENDSEC;

DATA;
#1 = CIRCLE ( 'NONE', #141, 12.50000000000000000 ) ;
#2 = EDGE_LOOP ( 'NONE', ( #194, #165 ) ) ;
#3 = DIRECTION ( 'NONE',  ( 1.000000000000000000, 0.000000000000000000, 0.000000000000000000 ) ) ;
#4 = CYLINDRICAL_SURFACE ( 'NONE', #100, 12.50000000000000000 ) ;
#5 = MANIFOLD_SOLID_BREP ( 'Imported1', #31 ) ;
#6 = DIRECTION ( 'NONE',  ( 0.000000000000000000, 0.000000000000000000, -1.000000000000000000 ) ) ;
#7 = ORIENTED_EDGE ( 'NONE', *, *, #202, .F. ) ;
#8 = ADVANCED_FACE ( 'NONE', ( #225 ), #4, .T. ) ;
#9 = AXIS2_PLACEMENT_3D ( 'NONE', #238, #55, #93 ) ;
#10 = EDGE_LOOP ( 'NONE', ( #137, #112 ) ) ;
#11 = APPROVAL ( #116, 'UNSPECIFIED' ) ;
#12 = PERSON_AND_ORGANIZATION ( #83, #43 ) ;
#13 = CARTESIAN_POINT ( 'NONE',  ( 12.50000000000000000, 1.530808498934191521E-15, 5.000000000000000000 ) ) ;
#14 = APPROVAL_DATE_TIME ( #248, #11 ) ;
#15 = CC_DESIGN_APPROVAL ( #20, ( #92 ) ) ;
#16 = DIRECTION ( 'NONE',  ( 0.000000000000000000, 0.000000000000000000, -1.000000000000000000 ) ) ;
#17 = PLANE ( 'NONE',  #237 ) ;
#18 = APPLICATION_CONTEXT ( 'configuration controlled 3d designs of mechanical parts and assemblies' ) ;
#19 = LINE ( 'NONE', #207, #106 ) ;
#20 = APPROVAL ( #24, 'UNSPECIFIED' ) ;
#21 = LOCAL_TIME ( 8, 57, 17.00000000000000000, #232 ) ;
#22 =( NAMED_UNIT ( * ) SI_UNIT ( $, .STERADIAN. ) SOLID_ANGLE_UNIT ( ) );
#23 = CIRCLE ( 'NONE', #102, 12.50000000000000000 ) ;
#24 = APPROVAL_STATUS ( 'not_yet_approved' ) ;
#25 = LOCAL_TIME ( 8, 57, 17.00000000000000000, #236 ) ;
#26 = DIRECTION ( 'NONE',  ( 0.000000000000000000, 0.000000000000000000, 1.000000000000000000 ) ) ;
#27 = CC_DESIGN_DATE_AND_TIME_ASSIGNMENT ( #44, #87, ( #62 ) ) ;
#28 = FACE_OUTER_BOUND ( 'NONE', #10, .T. ) ;
#29 = DIRECTION ( 'NONE',  ( 0.000000000000000000, 0.000000000000000000, 1.000000000000000000 ) ) ;
#30 = EDGE_LOOP ( 'NONE', ( #120, #182, #188, #245 ) ) ;
#31 = CLOSED_SHELL ( 'NONE', ( #197, #158, #234, #104, #8, #149 ) ) ;
#32 = DIRECTION ( 'NONE',  ( 0.000000000000000000, 0.000000000000000000, 1.000000000000000000 ) ) ;
#33 = CALENDAR_DATE ( 2021, 25, 10 ) ;
#34 = ORIENTED_EDGE ( 'NONE', *, *, #202, .T. ) ;
#35 = AXIS2_PLACEMENT_3D ( 'NONE', #131, #110, #126 ) ;
#36 = PRODUCT_DEFINITION_SHAPE ( 'NONE', 'NONE',  #62 ) ;
#37 = CARTESIAN_POINT ( 'NONE',  ( 0.000000000000000000, 0.000000000000000000, 5.000000000000000000 ) ) ;
#38 = CYLINDRICAL_SURFACE ( 'NONE', #47, 4.200000000000000178 ) ;
#39 = CIRCLE ( 'NONE', #183, 4.200000000000000178 ) ;
#40 = VERTEX_POINT ( 'NONE', #133 ) ;
#41 = APPROVAL_ROLE ( '' ) ;
#42 = SECURITY_CLASSIFICATION_LEVEL ( 'unclassified' ) ;
#43 = ORGANIZATION ( 'UNSPECIFIED', 'UNSPECIFIED', '' ) ;
#44 = DATE_AND_TIME ( #216, #199 ) ;
#45 = DATE_TIME_ROLE ( 'classification_date' ) ;
#46 = EDGE_LOOP ( 'NONE', ( #167, #132, #61, #7 ) ) ;
#47 = AXIS2_PLACEMENT_3D ( 'NONE', #230, #6, #233 ) ;
#48 = AXIS2_PLACEMENT_3D ( 'NONE', #71, #26, #94 ) ;
#49 = CARTESIAN_POINT ( 'NONE',  ( 12.50000000000000000, 1.530808498934191521E-15, 5.000000000000000000 ) ) ;
#50 = CC_DESIGN_DATE_AND_TIME_ASSIGNMENT ( #84, #45, ( #66 ) ) ;
#51 = CALENDAR_DATE ( 2021, 25, 10 ) ;
#52 = CARTESIAN_POINT ( 'NONE',  ( 0.000000000000000000, 0.000000000000000000, 0.000000000000000000 ) ) ;
#53 = ORIENTED_EDGE ( 'NONE', *, *, #108, .F. ) ;
#54 = EDGE_CURVE ( 'NONE', #103, #79, #19, .T. ) ;
#55 = DIRECTION ( 'NONE',  ( 0.000000000000000000, 0.000000000000000000, 1.000000000000000000 ) ) ;
#56 = SHAPE_DEFINITION_REPRESENTATION ( #36, #174 ) ;
#57 = CC_DESIGN_SECURITY_CLASSIFICATION ( #66, ( #92 ) ) ;
#58 = DATE_AND_TIME ( #33, #220 ) ;
#59 = CYLINDRICAL_SURFACE ( 'NONE', #35, 4.200000000000000178 ) ;
#60 = APPROVAL_ROLE ( '' ) ;
#61 = ORIENTED_EDGE ( 'NONE', *, *, #73, .F. ) ;
#62 = PRODUCT_DEFINITION ( 'UNKNOWN', '', #92, #246 ) ;
#63 = DIRECTION ( 'NONE',  ( 0.000000000000000000, 0.000000000000000000, 1.000000000000000000 ) ) ;
#64 = CALENDAR_DATE ( 2021, 25, 10 ) ;
#65 = CC_DESIGN_PERSON_AND_ORGANIZATION_ASSIGNMENT ( #101, #175, ( #62 ) ) ;
#66 = SECURITY_CLASSIFICATION ( '', '', #42 ) ;
#67 = CARTESIAN_POINT ( 'NONE',  ( -4.200000000000000178, 0.000000000000000000, 0.000000000000000000 ) ) ;
#68 = APPROVAL_DATE_TIME ( #159, #160 ) ;
#69 = CARTESIAN_POINT ( 'NONE',  ( 0.000000000000000000, 0.000000000000000000, 5.000000000000000000 ) ) ;
#70 = APPLICATION_CONTEXT ( 'configuration controlled 3d designs of mechanical parts and assemblies' ) ;
#71 = CARTESIAN_POINT ( 'NONE',  ( 0.000000000000000000, 0.000000000000000000, 0.000000000000000000 ) ) ;
#72 = DIRECTION ( 'NONE',  ( 1.000000000000000000, 0.000000000000000000, 0.000000000000000000 ) ) ;
#73 = EDGE_CURVE ( 'NONE', #119, #79, #91, .T. ) ;
#74 = EDGE_LOOP ( 'NONE', ( #128, #53 ) ) ;
#75 = CIRCLE ( 'NONE', #242, 4.200000000000000178 ) ;
#76 = CIRCLE ( 'NONE', #214, 12.50000000000000000 ) ;
#77 = MECHANICAL_CONTEXT ( 'NONE', #70, 'mechanical' ) ;
#78 = CARTESIAN_POINT ( 'NONE',  ( 4.200000000000000178, 5.143516556418882928E-16, 5.000000000000000000 ) ) ;
#79 = VERTEX_POINT ( 'NONE', #173 ) ;
#80 = PERSON_AND_ORGANIZATION_ROLE ( 'classification_officer' ) ;
#81 = CC_DESIGN_APPROVAL ( #160, ( #62 ) ) ;
#82 = CARTESIAN_POINT ( 'NONE',  ( 0.000000000000000000, 0.000000000000000000, 0.000000000000000000 ) ) ;
#83 = PERSON ( 'UNSPECIFIED', 'UNSPECIFIED', 'UNSPECIFIED', ('UNSPECIFIED'), ('UNSPECIFIED'), ('UNSPECIFIED') ) ;
#84 = DATE_AND_TIME ( #64, #21 ) ;
#85 = CC_DESIGN_PERSON_AND_ORGANIZATION_ASSIGNMENT ( #12, #96, ( #92 ) ) ;
#86 = ORIENTED_EDGE ( 'NONE', *, *, #114, .F. ) ;
#87 = DATE_TIME_ROLE ( 'creation_date' ) ;
#88 = FACE_OUTER_BOUND ( 'NONE', #227, .T. ) ;
#89 = UNCERTAINTY_MEASURE_WITH_UNIT (LENGTH_MEASURE( 1.000000000000000082E-05 ), #215, 'distance_accuracy_value', 'NONE');
#90 = DIRECTION ( 'NONE',  ( 1.000000000000000000, 0.000000000000000000, 0.000000000000000000 ) ) ;
#91 = CIRCLE ( 'NONE', #226, 4.200000000000000178 ) ;
#92 = PRODUCT_DEFINITION_FORMATION_WITH_SPECIFIED_SOURCE ( 'ANY', '', #247, .NOT_KNOWN. ) ;
#93 = DIRECTION ( 'NONE',  ( 1.000000000000000000, 0.000000000000000000, 0.000000000000000000 ) ) ;
#94 = DIRECTION ( 'NONE',  ( 1.000000000000000000, 0.000000000000000000, 0.000000000000000000 ) ) ;
#95 = DIRECTION ( 'NONE',  ( 0.000000000000000000, 0.000000000000000000, 1.000000000000000000 ) ) ;
#96 = PERSON_AND_ORGANIZATION_ROLE ( 'creator' ) ;
#97 = EDGE_LOOP ( 'NONE', ( #86, #186 ) ) ;
#98 = APPROVAL_DATE_TIME ( #58, #20 ) ;
#99 = CARTESIAN_POINT ( 'NONE',  ( 0.000000000000000000, 0.000000000000000000, 0.000000000000000000 ) ) ;
#100 = AXIS2_PLACEMENT_3D ( 'NONE', #37, #16, #105 ) ;
#101 = PERSON_AND_ORGANIZATION ( #83, #43 ) ;
#102 = AXIS2_PLACEMENT_3D ( 'NONE', #145, #243, #90 ) ;
#103 = VERTEX_POINT ( 'NONE', #78 ) ;
#104 = ADVANCED_FACE ( 'NONE', ( #154, #231 ), #17, .F. ) ;
#105 = DIRECTION ( 'NONE',  ( -1.000000000000000000, 0.000000000000000000, 0.000000000000000000 ) ) ;
#106 = VECTOR ( 'NONE', #192, 1000.000000000000000 ) ;
#107 = APPROVAL_PERSON_ORGANIZATION ( #218, #160, #41 ) ;
#108 = EDGE_CURVE ( 'NONE', #190, #223, #1, .T. ) ;
#109 = CC_DESIGN_PERSON_AND_ORGANIZATION_ASSIGNMENT ( #172, #184, ( #247 ) ) ;
#110 = DIRECTION ( 'NONE',  ( 0.000000000000000000, 0.000000000000000000, -1.000000000000000000 ) ) ;
#111 = ORIENTED_EDGE ( 'NONE', *, *, #181, .F. ) ;
#112 = ORIENTED_EDGE ( 'NONE', *, *, #181, .T. ) ;
#113 = APPROVAL_ROLE ( '' ) ;
#114 = EDGE_CURVE ( 'NONE', #40, #103, #129, .T. ) ;
#115 = DIRECTION ( 'NONE',  ( 1.000000000000000000, 0.000000000000000000, 0.000000000000000000 ) ) ;
#116 = APPROVAL_STATUS ( 'not_yet_approved' ) ;
#117 = CYLINDRICAL_SURFACE ( 'NONE', #180, 12.50000000000000000 ) ;
#118 = CARTESIAN_POINT ( 'NONE',  ( 12.50000000000000000, 1.530808498934191521E-15, 0.000000000000000000 ) ) ;
#119 = VERTEX_POINT ( 'NONE', #67 ) ;
#120 = ORIENTED_EDGE ( 'NONE', *, *, #217, .F. ) ;
#121 = COORDINATED_UNIVERSAL_TIME_OFFSET ( 9, 0, .AHEAD. ) ;
#122 = APPROVAL_PERSON_ORGANIZATION ( #150, #11, #113 ) ;
#123 = CALENDAR_DATE ( 2021, 25, 10 ) ;
#124 = APPROVAL_STATUS ( 'not_yet_approved' ) ;
#125 =( GEOMETRIC_REPRESENTATION_CONTEXT ( 3 ) GLOBAL_UNCERTAINTY_ASSIGNED_CONTEXT ( ( #89 ) ) GLOBAL_UNIT_ASSIGNED_CONTEXT ( ( #215, #212, #22 ) ) REPRESENTATION_CONTEXT ( 'NONE', 'WORKASPACE' ) );
#126 = DIRECTION ( 'NONE',  ( -1.000000000000000000, 0.000000000000000000, 0.000000000000000000 ) ) ;
#127 = DIRECTION ( 'NONE',  ( 0.000000000000000000, 0.000000000000000000, -1.000000000000000000 ) ) ;
#128 = ORIENTED_EDGE ( 'NONE', *, *, #213, .F. ) ;
#129 = CIRCLE ( 'NONE', #9, 4.200000000000000178 ) ;
#130 = CARTESIAN_POINT ( 'NONE',  ( 0.000000000000000000, 0.000000000000000000, 5.000000000000000000 ) ) ;
#131 = CARTESIAN_POINT ( 'NONE',  ( 0.000000000000000000, 0.000000000000000000, 5.000000000000000000 ) ) ;
#132 = ORIENTED_EDGE ( 'NONE', *, *, #54, .T. ) ;
#133 = CARTESIAN_POINT ( 'NONE',  ( -4.200000000000000178, 0.000000000000000000, 5.000000000000000000 ) ) ;
#134 = LOCAL_TIME ( 8, 57, 17.00000000000000000, #205 ) ;
#135 = VERTEX_POINT ( 'NONE', #143 ) ;
#136 = EDGE_CURVE ( 'NONE', #103, #40, #39, .T. ) ;
#137 = ORIENTED_EDGE ( 'NONE', *, *, #147, .T. ) ;
#138 = LINE ( 'NONE', #198, #157 ) ;
#139 = PERSON_AND_ORGANIZATION ( #83, #43 ) ;
#140 = APPLICATION_PROTOCOL_DEFINITION ( 'international standard', 'config_control_design', 1994, #18 ) ;
#141 = AXIS2_PLACEMENT_3D ( 'NONE', #82, #95, #240 ) ;
#142 = EDGE_CURVE ( 'NONE', #79, #119, #75, .T. ) ;
#143 = CARTESIAN_POINT ( 'NONE',  ( -12.50000000000000000, 0.000000000000000000, 5.000000000000000000 ) ) ;
#144 = CARTESIAN_POINT ( 'NONE',  ( -12.50000000000000000, 0.000000000000000000, 5.000000000000000000 ) ) ;
#145 = CARTESIAN_POINT ( 'NONE',  ( 0.000000000000000000, 0.000000000000000000, 5.000000000000000000 ) ) ;
#146 = CARTESIAN_POINT ( 'NONE',  ( -12.50000000000000000, 0.000000000000000000, 0.000000000000000000 ) ) ;
#147 = EDGE_CURVE ( 'NONE', #135, #203, #23, .T. ) ;
#148 = CARTESIAN_POINT ( 'NONE',  ( 0.000000000000000000, 0.000000000000000000, 5.000000000000000000 ) ) ;
#149 = ADVANCED_FACE ( 'NONE', ( #88 ), #59, .F. ) ;
#150 = PERSON_AND_ORGANIZATION ( #83, #43 ) ;
#151 = APPLICATION_PROTOCOL_DEFINITION ( 'international standard', 'config_control_design', 1994, #70 ) ;
#152 = ORIENTED_EDGE ( 'NONE', *, *, #136, .T. ) ;
#153 = CC_DESIGN_APPROVAL ( #11, ( #66 ) ) ;
#154 = FACE_OUTER_BOUND ( 'NONE', #74, .T. ) ;
#155 = ORIENTED_EDGE ( 'NONE', *, *, #54, .F. ) ;
#156 = DIRECTION ( 'NONE',  ( 0.000000000000000000, 0.000000000000000000, -1.000000000000000000 ) ) ;
#157 = VECTOR ( 'NONE', #156, 1000.000000000000000 ) ;
#158 = ADVANCED_FACE ( 'NONE', ( #204 ), #117, .T. ) ;
#159 = DATE_AND_TIME ( #123, #25 ) ;
#160 = APPROVAL ( #124, 'UNSPECIFIED' ) ;
#161 = DIRECTION ( 'NONE',  ( 0.000000000000000000, 0.000000000000000000, -1.000000000000000000 ) ) ;
#162 = PLANE ( 'NONE',  #166 ) ;
#163 = PERSON_AND_ORGANIZATION ( #83, #43 ) ;
#164 = DIRECTION ( 'NONE',  ( 1.000000000000000000, 0.000000000000000000, 0.000000000000000000 ) ) ;
#165 = ORIENTED_EDGE ( 'NONE', *, *, #142, .T. ) ;
#166 = AXIS2_PLACEMENT_3D ( 'NONE', #148, #195, #235 ) ;
#167 = ORIENTED_EDGE ( 'NONE', *, *, #114, .T. ) ;
#168 = ORIENTED_EDGE ( 'NONE', *, *, #209, .F. ) ;
#169 = PRODUCT_RELATED_PRODUCT_CATEGORY ( 'detail', '', ( #247 ) ) ;
#170 = DIRECTION ( 'NONE',  ( 0.000000000000000000, 0.000000000000000000, 1.000000000000000000 ) ) ;
#171 = PERSON_AND_ORGANIZATION ( #83, #43 ) ;
#172 = PERSON_AND_ORGANIZATION ( #83, #43 ) ;
#173 = CARTESIAN_POINT ( 'NONE',  ( 4.200000000000000178, 5.143516556418882928E-16, 0.000000000000000000 ) ) ;
#174 = ADVANCED_BREP_SHAPE_REPRESENTATION ( 'bj623-08001', ( #5, #210 ), #125 ) ;
#175 = PERSON_AND_ORGANIZATION_ROLE ( 'creator' ) ;
#176 = DIRECTION ( 'NONE',  ( 1.000000000000000000, 0.000000000000000000, 0.000000000000000000 ) ) ;
#177 = DIRECTION ( 'NONE',  ( 1.000000000000000000, 0.000000000000000000, 0.000000000000000000 ) ) ;
#178 = CC_DESIGN_PERSON_AND_ORGANIZATION_ASSIGNMENT ( #163, #241, ( #92 ) ) ;
#179 = ORIENTED_EDGE ( 'NONE', *, *, #142, .F. ) ;
#180 = AXIS2_PLACEMENT_3D ( 'NONE', #69, #222, #219 ) ;
#181 = EDGE_CURVE ( 'NONE', #203, #135, #76, .T. ) ;
#182 = ORIENTED_EDGE ( 'NONE', *, *, #147, .F. ) ;
#183 = AXIS2_PLACEMENT_3D ( 'NONE', #130, #32, #115 ) ;
#184 = PERSON_AND_ORGANIZATION_ROLE ( 'design_owner' ) ;
#185 = ORIENTED_EDGE ( 'NONE', *, *, #217, .T. ) ;
#186 = ORIENTED_EDGE ( 'NONE', *, *, #136, .F. ) ;
#187 = FACE_BOUND ( 'NONE', #97, .T. ) ;
#188 = ORIENTED_EDGE ( 'NONE', *, *, #209, .T. ) ;
#189 = DIRECTION ( 'NONE',  ( 0.000000000000000000, 0.000000000000000000, 1.000000000000000000 ) ) ;
#190 = VERTEX_POINT ( 'NONE', #118 ) ;
#191 = VECTOR ( 'NONE', #127, 1000.000000000000000 ) ;
#192 = DIRECTION ( 'NONE',  ( 0.000000000000000000, 0.000000000000000000, -1.000000000000000000 ) ) ;
#193 = COORDINATED_UNIVERSAL_TIME_OFFSET ( 9, 0, .AHEAD. ) ;
#194 = ORIENTED_EDGE ( 'NONE', *, *, #73, .T. ) ;
#195 = DIRECTION ( 'NONE',  ( 0.000000000000000000, 0.000000000000000000, 1.000000000000000000 ) ) ;
#196 = EDGE_LOOP ( 'NONE', ( #111, #185, #206, #168 ) ) ;
#197 = ADVANCED_FACE ( 'NONE', ( #229 ), #38, .F. ) ;
#198 = CARTESIAN_POINT ( 'NONE',  ( -4.200000000000000178, 0.000000000000000000, 5.000000000000000000 ) ) ;
#199 = LOCAL_TIME ( 8, 57, 17.00000000000000000, #121 ) ;
#200 = CC_DESIGN_PERSON_AND_ORGANIZATION_ASSIGNMENT ( #171, #80, ( #66 ) ) ;
#201 = CARTESIAN_POINT ( 'NONE',  ( 0.000000000000000000, 0.000000000000000000, 5.000000000000000000 ) ) ;
#202 = EDGE_CURVE ( 'NONE', #40, #119, #138, .T. ) ;
#203 = VERTEX_POINT ( 'NONE', #13 ) ;
#204 = FACE_OUTER_BOUND ( 'NONE', #196, .T. ) ;
#205 = COORDINATED_UNIVERSAL_TIME_OFFSET ( 9, 0, .AHEAD. ) ;
#206 = ORIENTED_EDGE ( 'NONE', *, *, #108, .T. ) ;
#207 = CARTESIAN_POINT ( 'NONE',  ( 4.200000000000000178, 5.143516556418882928E-16, 5.000000000000000000 ) ) ;
#208 = VECTOR ( 'NONE', #161, 1000.000000000000000 ) ;
#209 = EDGE_CURVE ( 'NONE', #135, #223, #244, .T. ) ;
#210 = AXIS2_PLACEMENT_3D ( 'NONE', #52, #29, #72 ) ;
#211 = CARTESIAN_POINT ( 'NONE',  ( 0.000000000000000000, 0.000000000000000000, 0.000000000000000000 ) ) ;
#212 =( NAMED_UNIT ( * ) PLANE_ANGLE_UNIT ( ) SI_UNIT ( $, .RADIAN. ) );
#213 = EDGE_CURVE ( 'NONE', #223, #190, #239, .T. ) ;
#214 = AXIS2_PLACEMENT_3D ( 'NONE', #201, #249, #176 ) ;
#215 =( LENGTH_UNIT ( ) NAMED_UNIT ( * ) SI_UNIT ( .MILLI., .METRE. ) );
#216 = CALENDAR_DATE ( 2021, 25, 10 ) ;
#217 = EDGE_CURVE ( 'NONE', #203, #190, #221, .T. ) ;
#218 = PERSON_AND_ORGANIZATION ( #83, #43 ) ;
#219 = DIRECTION ( 'NONE',  ( -1.000000000000000000, 0.000000000000000000, 0.000000000000000000 ) ) ;
#220 = LOCAL_TIME ( 8, 57, 17.00000000000000000, #193 ) ;
#221 = LINE ( 'NONE', #49, #191 ) ;
#222 = DIRECTION ( 'NONE',  ( 0.000000000000000000, 0.000000000000000000, -1.000000000000000000 ) ) ;
#223 = VERTEX_POINT ( 'NONE', #146 ) ;
#224 = CARTESIAN_POINT ( 'NONE',  ( 0.000000000000000000, 0.000000000000000000, 0.000000000000000000 ) ) ;
#225 = FACE_OUTER_BOUND ( 'NONE', #30, .T. ) ;
#226 = AXIS2_PLACEMENT_3D ( 'NONE', #99, #170, #3 ) ;
#227 = EDGE_LOOP ( 'NONE', ( #155, #152, #34, #179 ) ) ;
#228 = APPROVAL_PERSON_ORGANIZATION ( #139, #20, #60 ) ;
#229 = FACE_OUTER_BOUND ( 'NONE', #46, .T. ) ;
#230 = CARTESIAN_POINT ( 'NONE',  ( 0.000000000000000000, 0.000000000000000000, 5.000000000000000000 ) ) ;
#231 = FACE_BOUND ( 'NONE', #2, .T. ) ;
#232 = COORDINATED_UNIVERSAL_TIME_OFFSET ( 9, 0, .AHEAD. ) ;
#233 = DIRECTION ( 'NONE',  ( -1.000000000000000000, 0.000000000000000000, 0.000000000000000000 ) ) ;
#234 = ADVANCED_FACE ( 'NONE', ( #28, #187 ), #162, .T. ) ;
#235 = DIRECTION ( 'NONE',  ( 1.000000000000000000, 0.000000000000000000, 0.000000000000000000 ) ) ;
#236 = COORDINATED_UNIVERSAL_TIME_OFFSET ( 9, 0, .AHEAD. ) ;
#237 = AXIS2_PLACEMENT_3D ( 'NONE', #211, #63, #177 ) ;
#238 = CARTESIAN_POINT ( 'NONE',  ( 0.000000000000000000, 0.000000000000000000, 5.000000000000000000 ) ) ;
#239 = CIRCLE ( 'NONE', #48, 12.50000000000000000 ) ;
#240 = DIRECTION ( 'NONE',  ( 1.000000000000000000, 0.000000000000000000, 0.000000000000000000 ) ) ;
#241 = PERSON_AND_ORGANIZATION_ROLE ( 'design_supplier' ) ;
#242 = AXIS2_PLACEMENT_3D ( 'NONE', #224, #189, #164 ) ;
#243 = DIRECTION ( 'NONE',  ( 0.000000000000000000, 0.000000000000000000, 1.000000000000000000 ) ) ;
#244 = LINE ( 'NONE', #144, #208 ) ;
#245 = ORIENTED_EDGE ( 'NONE', *, *, #213, .T. ) ;
#246 = DESIGN_CONTEXT ( 'detailed design', #18, 'design' ) ;
#247 = PRODUCT ( 'bj623-08001', 'bj623-08001', '', ( #77 ) ) ;
#248 = DATE_AND_TIME ( #51, #134 ) ;
#249 = DIRECTION ( 'NONE',  ( 0.000000000000000000, 0.000000000000000000, 1.000000000000000000 ) ) ;
ENDSEC;
END-ISO-10303-21;
