ISO-10303-21;
HEADER;
FILE_DESCRIPTION (( 'STEP AP203' ),
    '1' );
FILE_NAME ('bj300-12100.STEP',
    '2021-10-24T23:51:29',
    ( '' ),
    ( '' ),
    'SwSTEP 2.0',
    'SolidWorks 2020',
    '' );
FILE_SCHEMA (( 'CONFIG_CONTROL_DESIGN' ));
ENDSEC;

DATA;
#1 = DIRECTION ( 'NONE',  ( 1.000000000000000000, 0.000000000000000000, 0.000000000000000000 ) ) ;
#2 = APPROVAL_PERSON_ORGANIZATION ( #297, #274, #70 ) ;
#3 = PLANE ( 'NONE',  #191 ) ;
#4 = MECHANICAL_CONTEXT ( 'NONE', #157, 'mechanical' ) ;
#5 = PRODUCT_DEFINITION_SHAPE ( 'NONE', 'NONE',  #298 ) ;
#6 = CARTESIAN_POINT ( 'NONE',  ( 0.000000000000000000, 0.000000000000000000, 22.00000000000000000 ) ) ;
#7 = DIRECTION ( 'NONE',  ( 1.000000000000000000, 0.000000000000000000, 0.000000000000000000 ) ) ;
#8 = VECTOR ( 'NONE', #127, 1000.000000000000000 ) ;
#9 = DIRECTION ( 'NONE',  ( 0.000000000000000000, 0.000000000000000000, 1.000000000000000000 ) ) ;
#10 = CARTESIAN_POINT ( 'NONE',  ( -7.000000000000000000, 8.572527594031473190E-16, 0.000000000000000000 ) ) ;
#11 = DATE_TIME_ROLE ( 'creation_date' ) ;
#12 = COORDINATED_UNIVERSAL_TIME_OFFSET ( 9, 0, .AHEAD. ) ;
#13 = LOCAL_TIME ( 8, 51, 29.00000000000000000, #12 ) ;
#14 = DIRECTION ( 'NONE',  ( 1.000000000000000000, 0.000000000000000000, 0.000000000000000000 ) ) ;
#15 = PERSON_AND_ORGANIZATION_ROLE ( 'classification_officer' ) ;
#16 = DIRECTION ( 'NONE',  ( 1.000000000000000000, 0.000000000000000000, 0.000000000000000000 ) ) ;
#17 = AXIS2_PLACEMENT_3D ( 'NONE', #105, #84, #62 ) ;
#18 = EDGE_LOOP ( 'NONE', ( #72, #135 ) ) ;
#19 = APPROVAL_PERSON_ORGANIZATION ( #219, #119, #89 ) ;
#20 = LINE ( 'NONE', #26, #8 ) ;
#21 = ADVANCED_FACE ( 'NONE', ( #121 ), #275, .F. ) ;
#22 = VERTEX_POINT ( 'NONE', #107 ) ;
#23 = LINE ( 'NONE', #53, #312 ) ;
#24 = VERTEX_POINT ( 'NONE', #109 ) ;
#25 = CIRCLE ( 'NONE', #208, 10.00000000000000000 ) ;
#26 = CARTESIAN_POINT ( 'NONE',  ( -10.00000000000000000, 1.224646799147353256E-15, 40.00000000000000000 ) ) ;
#27 = AXIS2_PLACEMENT_3D ( 'NONE', #46, #138, #16 ) ;
#28 = EDGE_LOOP ( 'NONE', ( #173, #228 ) ) ;
#29 = PERSON ( 'UNSPECIFIED', 'UNSPECIFIED', 'UNSPECIFIED', ('UNSPECIFIED'), ('UNSPECIFIED'), ('UNSPECIFIED') ) ;
#30 = EDGE_CURVE ( 'NONE', #217, #301, #232, .T. ) ;
#31 = ORIENTED_EDGE ( 'NONE', *, *, #110, .T. ) ;
#32 = ADVANCED_FACE ( 'NONE', ( #310 ), #158, .F. ) ;
#33 = APPLICATION_PROTOCOL_DEFINITION ( 'international standard', 'config_control_design', 1994, #157 ) ;
#34 = FACE_OUTER_BOUND ( 'NONE', #248, .T. ) ;
#35 = EDGE_CURVE ( 'NONE', #280, #148, #181, .T. ) ;
#36 = CARTESIAN_POINT ( 'NONE',  ( 10.00000000000000000, 0.000000000000000000, 22.00000000000000000 ) ) ;
#37 = CIRCLE ( 'NONE', #218, 10.00000000000000000 ) ;
#38 = DIRECTION ( 'NONE',  ( 0.000000000000000000, 0.000000000000000000, 1.000000000000000000 ) ) ;
#39 = AXIS2_PLACEMENT_3D ( 'NONE', #177, #48, #302 ) ;
#40 = PLANE ( 'NONE',  #290 ) ;
#41 = DATE_AND_TIME ( #299, #56 ) ;
#42 = FACE_OUTER_BOUND ( 'NONE', #28, .T. ) ;
#43 = DIRECTION ( 'NONE',  ( 0.000000000000000000, 0.000000000000000000, 1.000000000000000000 ) ) ;
#44 = DATE_AND_TIME ( #194, #193 ) ;
#45 = AXIS2_PLACEMENT_3D ( 'NONE', #201, #305, #122 ) ;
#46 = CARTESIAN_POINT ( 'NONE',  ( 0.000000000000000000, 0.000000000000000000, 22.00000000000000000 ) ) ;
#47 = PERSON_AND_ORGANIZATION ( #29, #169 ) ;
#48 = DIRECTION ( 'NONE',  ( 0.000000000000000000, 0.000000000000000000, 1.000000000000000000 ) ) ;
#49 = ORIENTED_EDGE ( 'NONE', *, *, #202, .T. ) ;
#50 = ORIENTED_EDGE ( 'NONE', *, *, #277, .F. ) ;
#51 = CARTESIAN_POINT ( 'NONE',  ( 7.000000000000000000, 0.000000000000000000, 22.00000000000000000 ) ) ;
#52 = ORIENTED_EDGE ( 'NONE', *, *, #144, .T. ) ;
#53 = CARTESIAN_POINT ( 'NONE',  ( 10.00000000000000000, 0.000000000000000000, 40.00000000000000000 ) ) ;
#54 = EDGE_LOOP ( 'NONE', ( #273, #198 ) ) ;
#55 = CYLINDRICAL_SURFACE ( 'NONE', #210, 10.00000000000000000 ) ;
#56 = LOCAL_TIME ( 8, 51, 29.00000000000000000, #319 ) ;
#57 = ORIENTED_EDGE ( 'NONE', *, *, #324, .F. ) ;
#58 = CC_DESIGN_DATE_AND_TIME_ASSIGNMENT ( #41, #116, ( #309 ) ) ;
#59 = CARTESIAN_POINT ( 'NONE',  ( -10.00000000000000000, 1.224646799147353256E-15, 100.0000000000000000 ) ) ;
#60 = ADVANCED_FACE ( 'NONE', ( #34, #131 ), #3, .F. ) ;
#61 = DIRECTION ( 'NONE',  ( 1.000000000000000000, 0.000000000000000000, 0.000000000000000000 ) ) ;
#62 = DIRECTION ( 'NONE',  ( 1.000000000000000000, 0.000000000000000000, 0.000000000000000000 ) ) ;
#63 = LINE ( 'NONE', #154, #159 ) ;
#64 = EDGE_CURVE ( 'NONE', #101, #75, #151, .T. ) ;
#65 = CARTESIAN_POINT ( 'NONE',  ( 0.000000000000000000, 0.000000000000000000, 40.00000000000000000 ) ) ;
#66 = EDGE_CURVE ( 'NONE', #80, #97, #37, .T. ) ;
#67 = AXIS2_PLACEMENT_3D ( 'NONE', #216, #190, #295 ) ;
#68 = EDGE_CURVE ( 'NONE', #24, #244, #258, .T. ) ;
#69 = DIRECTION ( 'NONE',  ( 0.000000000000000000, 0.000000000000000000, 1.000000000000000000 ) ) ;
#70 = APPROVAL_ROLE ( '' ) ;
#71 = DIRECTION ( 'NONE',  ( 0.000000000000000000, 0.000000000000000000, 1.000000000000000000 ) ) ;
#72 = ORIENTED_EDGE ( 'NONE', *, *, #64, .F. ) ;
#73 = AXIS2_PLACEMENT_3D ( 'NONE', #184, #207, #82 ) ;
#74 = DIRECTION ( 'NONE',  ( 1.000000000000000000, 0.000000000000000000, 0.000000000000000000 ) ) ;
#75 = VERTEX_POINT ( 'NONE', #59 ) ;
#76 = EDGE_CURVE ( 'NONE', #148, #244, #63, .T. ) ;
#77 = ORIENTED_EDGE ( 'NONE', *, *, #171, .T. ) ;
#78 = ORIENTED_EDGE ( 'NONE', *, *, #167, .F. ) ;
#79 = CARTESIAN_POINT ( 'NONE',  ( -7.000000000000000000, 8.572527594031473190E-16, 22.00000000000000000 ) ) ;
#80 = VERTEX_POINT ( 'NONE', #36 ) ;
#81 = CIRCLE ( 'NONE', #39, 20.00000000000000000 ) ;
#82 = DIRECTION ( 'NONE',  ( 1.000000000000000000, 0.000000000000000000, 0.000000000000000000 ) ) ;
#83 = CARTESIAN_POINT ( 'NONE',  ( 0.000000000000000000, 0.000000000000000000, 0.000000000000000000 ) ) ;
#84 = DIRECTION ( 'NONE',  ( 0.000000000000000000, 0.000000000000000000, 1.000000000000000000 ) ) ;
#85 = DIRECTION ( 'NONE',  ( 0.000000000000000000, 0.000000000000000000, 1.000000000000000000 ) ) ;
#86 = DIRECTION ( 'NONE',  ( 0.000000000000000000, 0.000000000000000000, -1.000000000000000000 ) ) ;
#87 = CARTESIAN_POINT ( 'NONE',  ( 0.000000000000000000, 0.000000000000000000, 0.000000000000000000 ) ) ;
#88 = EDGE_CURVE ( 'NONE', #97, #80, #25, .T. ) ;
#89 = APPROVAL_ROLE ( '' ) ;
#90 = FACE_OUTER_BOUND ( 'NONE', #142, .T. ) ;
#91 = CALENDAR_DATE ( 2021, 25, 10 ) ;
#92 = DATE_AND_TIME ( #168, #186 ) ;
#93 = CC_DESIGN_SECURITY_CLASSIFICATION ( #309, ( #235 ) ) ;
#94 = DIRECTION ( 'NONE',  ( 1.000000000000000000, 0.000000000000000000, 0.000000000000000000 ) ) ;
#95 = CC_DESIGN_PERSON_AND_ORGANIZATION_ASSIGNMENT ( #215, #192, ( #235 ) ) ;
#96 = APPROVAL_DATE_TIME ( #118, #245 ) ;
#97 = VERTEX_POINT ( 'NONE', #284 ) ;
#98 = EDGE_LOOP ( 'NONE', ( #31, #327 ) ) ;
#99 = EDGE_LOOP ( 'NONE', ( #278, #196, #204, #49 ) ) ;
#100 = CARTESIAN_POINT ( 'NONE',  ( 0.000000000000000000, 0.000000000000000000, 40.00000000000000000 ) ) ;
#101 = VERTEX_POINT ( 'NONE', #104 ) ;
#102 = ORIENTED_EDGE ( 'NONE', *, *, #277, .T. ) ;
#103 = CC_DESIGN_APPROVAL ( #245, ( #298 ) ) ;
#104 = CARTESIAN_POINT ( 'NONE',  ( 10.00000000000000000, 0.000000000000000000, 100.0000000000000000 ) ) ;
#105 = CARTESIAN_POINT ( 'NONE',  ( 0.000000000000000000, 0.000000000000000000, 100.0000000000000000 ) ) ;
#106 =( LENGTH_UNIT ( ) NAMED_UNIT ( * ) SI_UNIT ( .MILLI., .METRE. ) );
#107 = CARTESIAN_POINT ( 'NONE',  ( 7.000000000000000000, 0.000000000000000000, 0.000000000000000000 ) ) ;
#108 = AXIS2_PLACEMENT_3D ( 'NONE', #188, #86, #242 ) ;
#109 = CARTESIAN_POINT ( 'NONE',  ( -20.00000000000000000, 2.449293598294706513E-15, 100.0000000000000000 ) ) ;
#110 = EDGE_CURVE ( 'NONE', #22, #217, #212, .T. ) ;
#111 = DIRECTION ( 'NONE',  ( 1.000000000000000000, 0.000000000000000000, 0.000000000000000000 ) ) ;
#112 = COORDINATED_UNIVERSAL_TIME_OFFSET ( 9, 0, .AHEAD. ) ;
#113 =( GEOMETRIC_REPRESENTATION_CONTEXT ( 3 ) GLOBAL_UNCERTAINTY_ASSIGNED_CONTEXT ( ( #227 ) ) GLOBAL_UNIT_ASSIGNED_CONTEXT ( ( #106, #211, #156 ) ) REPRESENTATION_CONTEXT ( 'NONE', 'WORKASPACE' ) );
#114 = LINE ( 'NONE', #164, #133 ) ;
#115 = ORIENTED_EDGE ( 'NONE', *, *, #231, .F. ) ;
#116 = DATE_TIME_ROLE ( 'classification_date' ) ;
#117 = CARTESIAN_POINT ( 'NONE',  ( 0.000000000000000000, 0.000000000000000000, 100.0000000000000000 ) ) ;
#118 = DATE_AND_TIME ( #91, #13 ) ;
#119 = APPROVAL ( #139, 'UNSPECIFIED' ) ;
#120 = AXIS2_PLACEMENT_3D ( 'NONE', #134, #43, #267 ) ;
#121 = FACE_OUTER_BOUND ( 'NONE', #304, .T. ) ;
#122 = DIRECTION ( 'NONE',  ( 1.000000000000000000, 0.000000000000000000, 0.000000000000000000 ) ) ;
#123 = ORIENTED_EDGE ( 'NONE', *, *, #262, .T. ) ;
#124 = VECTOR ( 'NONE', #209, 1000.000000000000000 ) ;
#125 = EDGE_LOOP ( 'NONE', ( #146, #175 ) ) ;
#126 = AXIS2_PLACEMENT_3D ( 'NONE', #293, #265, #14 ) ;
#127 = DIRECTION ( 'NONE',  ( 0.000000000000000000, 0.000000000000000000, 1.000000000000000000 ) ) ;
#128 = ORIENTED_EDGE ( 'NONE', *, *, #231, .T. ) ;
#129 = CARTESIAN_POINT ( 'NONE',  ( 0.000000000000000000, 0.000000000000000000, 100.0000000000000000 ) ) ;
#130 = DIRECTION ( 'NONE',  ( 0.000000000000000000, 0.000000000000000000, 1.000000000000000000 ) ) ;
#131 = FACE_BOUND ( 'NONE', #98, .T. ) ;
#132 = ADVANCED_FACE ( 'NONE', ( #314, #313 ), #317, .F. ) ;
#133 = VECTOR ( 'NONE', #69, 1000.000000000000000 ) ;
#134 = CARTESIAN_POINT ( 'NONE',  ( 0.000000000000000000, 0.000000000000000000, 22.00000000000000000 ) ) ;
#135 = ORIENTED_EDGE ( 'NONE', *, *, #205, .F. ) ;
#136 = CARTESIAN_POINT ( 'NONE',  ( 7.000000000000000000, 0.000000000000000000, 40.00000000000000000 ) ) ;
#137 = APPROVAL_DATE_TIME ( #44, #119 ) ;
#138 = DIRECTION ( 'NONE',  ( 0.000000000000000000, 0.000000000000000000, 1.000000000000000000 ) ) ;
#139 = APPROVAL_STATUS ( 'not_yet_approved' ) ;
#140 = ADVANCED_FACE ( 'NONE', ( #239, #42 ), #40, .F. ) ;
#141 = SHAPE_DEFINITION_REPRESENTATION ( #5, #286 ) ;
#142 = EDGE_LOOP ( 'NONE', ( #102, #52, #57, #325 ) ) ;
#143 = CIRCLE ( 'NONE', #255, 10.00000000000000000 ) ;
#144 = EDGE_CURVE ( 'NONE', #280, #24, #114, .T. ) ;
#145 = EDGE_LOOP ( 'NONE', ( #220, #123, #226, #115 ) ) ;
#146 = ORIENTED_EDGE ( 'NONE', *, *, #202, .F. ) ;
#147 = ORIENTED_EDGE ( 'NONE', *, *, #66, .F. ) ;
#148 = VERTEX_POINT ( 'NONE', #316 ) ;
#149 = CC_DESIGN_PERSON_AND_ORGANIZATION_ASSIGNMENT ( #271, #322, ( #235 ) ) ;
#150 = DIRECTION ( 'NONE',  ( 0.000000000000000000, 0.000000000000000000, 1.000000000000000000 ) ) ;
#151 = CIRCLE ( 'NONE', #318, 10.00000000000000000 ) ;
#152 = DIRECTION ( 'NONE',  ( 0.000000000000000000, 0.000000000000000000, 1.000000000000000000 ) ) ;
#153 = CIRCLE ( 'NONE', #45, 7.000000000000000000 ) ;
#154 = CARTESIAN_POINT ( 'NONE',  ( 20.00000000000000000, 0.000000000000000000, 40.00000000000000000 ) ) ;
#155 = CC_DESIGN_PERSON_AND_ORGANIZATION_ASSIGNMENT ( #257, #160, ( #233 ) ) ;
#156 =( NAMED_UNIT ( * ) SI_UNIT ( $, .STERADIAN. ) SOLID_ANGLE_UNIT ( ) );
#157 = APPLICATION_CONTEXT ( 'configuration controlled 3d designs of mechanical parts and assemblies' ) ;
#158 = CYLINDRICAL_SURFACE ( 'NONE', #197, 7.000000000000000000 ) ;
#159 = VECTOR ( 'NONE', #9, 1000.000000000000000 ) ;
#160 = PERSON_AND_ORGANIZATION_ROLE ( 'design_owner' ) ;
#161 = LINE ( 'NONE', #136, #206 ) ;
#162 = AXIS2_PLACEMENT_3D ( 'NONE', #174, #195, #272 ) ;
#163 = APPROVAL_STATUS ( 'not_yet_approved' ) ;
#164 = CARTESIAN_POINT ( 'NONE',  ( -20.00000000000000000, 2.449293598294706513E-15, 40.00000000000000000 ) ) ;
#165 = APPROVAL_ROLE ( '' ) ;
#166 = DIRECTION ( 'NONE',  ( 0.000000000000000000, 0.000000000000000000, 1.000000000000000000 ) ) ;
#167 = EDGE_CURVE ( 'NONE', #22, #251, #161, .T. ) ;
#168 = CALENDAR_DATE ( 2021, 25, 10 ) ;
#169 = ORGANIZATION ( 'UNSPECIFIED', 'UNSPECIFIED', '' ) ;
#170 = CARTESIAN_POINT ( 'NONE',  ( 10.00000000000000000, 0.000000000000000000, 22.00000000000000000 ) ) ;
#171 = EDGE_CURVE ( 'NONE', #301, #251, #268, .T. ) ;
#172 = DIRECTION ( 'NONE',  ( 0.000000000000000000, 0.000000000000000000, 1.000000000000000000 ) ) ;
#173 = ORIENTED_EDGE ( 'NONE', *, *, #66, .T. ) ;
#174 = CARTESIAN_POINT ( 'NONE',  ( 0.000000000000000000, 0.000000000000000000, 0.000000000000000000 ) ) ;
#175 = ORIENTED_EDGE ( 'NONE', *, *, #171, .F. ) ;
#176 = EDGE_LOOP ( 'NONE', ( #323, #147, #128, #200 ) ) ;
#177 = CARTESIAN_POINT ( 'NONE',  ( 0.000000000000000000, 0.000000000000000000, 100.0000000000000000 ) ) ;
#178 = ORIENTED_EDGE ( 'NONE', *, *, #35, .F. ) ;
#179 = CC_DESIGN_DATE_AND_TIME_ASSIGNMENT ( #266, #11, ( #298 ) ) ;
#180 = ADVANCED_FACE ( 'NONE', ( #263 ), #270, .T. ) ;
#181 = CIRCLE ( 'NONE', #296, 20.00000000000000000 ) ;
#182 = CARTESIAN_POINT ( 'NONE',  ( -7.000000000000000000, 8.572527594031473190E-16, 40.00000000000000000 ) ) ;
#183 = AXIS2_PLACEMENT_3D ( 'NONE', #83, #71, #111 ) ;
#184 = CARTESIAN_POINT ( 'NONE',  ( 0.000000000000000000, 0.000000000000000000, 40.00000000000000000 ) ) ;
#185 = CYLINDRICAL_SURFACE ( 'NONE', #67, 20.00000000000000000 ) ;
#186 = LOCAL_TIME ( 8, 51, 29.00000000000000000, #289 ) ;
#187 = SECURITY_CLASSIFICATION_LEVEL ( 'unclassified' ) ;
#188 = CARTESIAN_POINT ( 'NONE',  ( 20.00000000000000000, 0.000000000000000000, 100.0000000000000000 ) ) ;
#189 = ADVANCED_FACE ( 'NONE', ( #90 ), #185, .T. ) ;
#190 = DIRECTION ( 'NONE',  ( 0.000000000000000000, 0.000000000000000000, 1.000000000000000000 ) ) ;
#191 = AXIS2_PLACEMENT_3D ( 'NONE', #281, #152, #282 ) ;
#192 = PERSON_AND_ORGANIZATION_ROLE ( 'design_supplier' ) ;
#193 = LOCAL_TIME ( 8, 51, 29.00000000000000000, #269 ) ;
#194 = CALENDAR_DATE ( 2021, 25, 10 ) ;
#195 = DIRECTION ( 'NONE',  ( 0.000000000000000000, 0.000000000000000000, 1.000000000000000000 ) ) ;
#196 = ORIENTED_EDGE ( 'NONE', *, *, #110, .F. ) ;
#197 = AXIS2_PLACEMENT_3D ( 'NONE', #65, #259, #7 ) ;
#198 = ORIENTED_EDGE ( 'NONE', *, *, #68, .T. ) ;
#199 = CC_DESIGN_APPROVAL ( #119, ( #235 ) ) ;
#200 = ORIENTED_EDGE ( 'NONE', *, *, #64, .T. ) ;
#201 = CARTESIAN_POINT ( 'NONE',  ( 0.000000000000000000, 0.000000000000000000, 0.000000000000000000 ) ) ;
#202 = EDGE_CURVE ( 'NONE', #251, #301, #276, .T. ) ;
#203 = ORIENTED_EDGE ( 'NONE', *, *, #68, .F. ) ;
#204 = ORIENTED_EDGE ( 'NONE', *, *, #167, .T. ) ;
#205 = EDGE_CURVE ( 'NONE', #75, #101, #143, .T. ) ;
#206 = VECTOR ( 'NONE', #166, 1000.000000000000000 ) ;
#207 = DIRECTION ( 'NONE',  ( 0.000000000000000000, 0.000000000000000000, 1.000000000000000000 ) ) ;
#208 = AXIS2_PLACEMENT_3D ( 'NONE', #6, #85, #307 ) ;
#209 = DIRECTION ( 'NONE',  ( 0.000000000000000000, 0.000000000000000000, 1.000000000000000000 ) ) ;
#210 = AXIS2_PLACEMENT_3D ( 'NONE', #328, #172, #74 ) ;
#211 =( NAMED_UNIT ( * ) PLANE_ANGLE_UNIT ( ) SI_UNIT ( $, .RADIAN. ) );
#212 = CIRCLE ( 'NONE', #183, 7.000000000000000000 ) ;
#213 = FACE_OUTER_BOUND ( 'NONE', #176, .T. ) ;
#214 = AXIS2_PLACEMENT_3D ( 'NONE', #87, #150, #61 ) ;
#215 = PERSON_AND_ORGANIZATION ( #29, #169 ) ;
#216 = CARTESIAN_POINT ( 'NONE',  ( 0.000000000000000000, 0.000000000000000000, 40.00000000000000000 ) ) ;
#217 = VERTEX_POINT ( 'NONE', #10 ) ;
#218 = AXIS2_PLACEMENT_3D ( 'NONE', #236, #130, #229 ) ;
#219 = PERSON_AND_ORGANIZATION ( #29, #169 ) ;
#220 = ORIENTED_EDGE ( 'NONE', *, *, #88, .F. ) ;
#221 = CALENDAR_DATE ( 2021, 25, 10 ) ;
#222 = FACE_OUTER_BOUND ( 'NONE', #145, .T. ) ;
#223 = ORIENTED_EDGE ( 'NONE', *, *, #30, .T. ) ;
#224 = ADVANCED_FACE ( 'NONE', ( #213 ), #55, .F. ) ;
#225 = CARTESIAN_POINT ( 'NONE',  ( -20.00000000000000000, 2.449293598294706513E-15, 0.000000000000000000 ) ) ;
#226 = ORIENTED_EDGE ( 'NONE', *, *, #205, .T. ) ;
#227 = UNCERTAINTY_MEASURE_WITH_UNIT (LENGTH_MEASURE( 1.000000000000000082E-05 ), #106, 'distance_accuracy_value', 'NONE');
#228 = ORIENTED_EDGE ( 'NONE', *, *, #88, .T. ) ;
#229 = DIRECTION ( 'NONE',  ( 1.000000000000000000, 0.000000000000000000, 0.000000000000000000 ) ) ;
#230 = APPLICATION_CONTEXT ( 'configuration controlled 3d designs of mechanical parts and assemblies' ) ;
#231 = EDGE_CURVE ( 'NONE', #80, #101, #23, .T. ) ;
#232 = LINE ( 'NONE', #182, #124 ) ;
#233 = PRODUCT ( 'bj300-12100', 'bj300-12100', '', ( #4 ) ) ;
#234 = CC_DESIGN_PERSON_AND_ORGANIZATION_ASSIGNMENT ( #294, #240, ( #298 ) ) ;
#235 = PRODUCT_DEFINITION_FORMATION_WITH_SPECIFIED_SOURCE ( 'ANY', '', #233, .NOT_KNOWN. ) ;
#236 = CARTESIAN_POINT ( 'NONE',  ( 0.000000000000000000, 0.000000000000000000, 22.00000000000000000 ) ) ;
#237 = DIRECTION ( 'NONE',  ( -1.000000000000000000, 0.000000000000000000, 0.000000000000000000 ) ) ;
#238 = PERSON_AND_ORGANIZATION ( #29, #169 ) ;
#239 = FACE_BOUND ( 'NONE', #125, .T. ) ;
#240 = PERSON_AND_ORGANIZATION_ROLE ( 'creator' ) ;
#241 = AXIS2_PLACEMENT_3D ( 'NONE', #100, #320, #94 ) ;
#242 = DIRECTION ( 'NONE',  ( -1.000000000000000000, 0.000000000000000000, 0.000000000000000000 ) ) ;
#243 = MANIFOLD_SOLID_BREP ( 'Imported1', #326 ) ;
#244 = VERTEX_POINT ( 'NONE', #250 ) ;
#245 = APPROVAL ( #264, 'UNSPECIFIED' ) ;
#246 = ORIENTED_EDGE ( 'NONE', *, *, #76, .T. ) ;
#247 = CIRCLE ( 'NONE', #162, 20.00000000000000000 ) ;
#248 = EDGE_LOOP ( 'NONE', ( #50, #178 ) ) ;
#249 = CYLINDRICAL_SURFACE ( 'NONE', #241, 10.00000000000000000 ) ;
#250 = CARTESIAN_POINT ( 'NONE',  ( 20.00000000000000000, 0.000000000000000000, 100.0000000000000000 ) ) ;
#251 = VERTEX_POINT ( 'NONE', #51 ) ;
#252 = LOCAL_TIME ( 8, 51, 29.00000000000000000, #112 ) ;
#253 = DIRECTION ( 'NONE',  ( 0.000000000000000000, 0.000000000000000000, 1.000000000000000000 ) ) ;
#254 = DIRECTION ( 'NONE',  ( 1.000000000000000000, 0.000000000000000000, 0.000000000000000000 ) ) ;
#255 = AXIS2_PLACEMENT_3D ( 'NONE', #117, #288, #261 ) ;
#256 = ADVANCED_FACE ( 'NONE', ( #222 ), #249, .F. ) ;
#257 = PERSON_AND_ORGANIZATION ( #29, #169 ) ;
#258 = CIRCLE ( 'NONE', #17, 20.00000000000000000 ) ;
#259 = DIRECTION ( 'NONE',  ( 0.000000000000000000, 0.000000000000000000, 1.000000000000000000 ) ) ;
#260 = APPROVAL_PERSON_ORGANIZATION ( #238, #245, #165 ) ;
#261 = DIRECTION ( 'NONE',  ( 1.000000000000000000, 0.000000000000000000, 0.000000000000000000 ) ) ;
#262 = EDGE_CURVE ( 'NONE', #97, #75, #20, .T. ) ;
#263 = FACE_OUTER_BOUND ( 'NONE', #279, .T. ) ;
#264 = APPROVAL_STATUS ( 'not_yet_approved' ) ;
#265 = DIRECTION ( 'NONE',  ( 0.000000000000000000, 0.000000000000000000, 1.000000000000000000 ) ) ;
#266 = DATE_AND_TIME ( #221, #252 ) ;
#267 = DIRECTION ( 'NONE',  ( 1.000000000000000000, 0.000000000000000000, 0.000000000000000000 ) ) ;
#268 = CIRCLE ( 'NONE', #120, 7.000000000000000000 ) ;
#269 = COORDINATED_UNIVERSAL_TIME_OFFSET ( 9, 0, .AHEAD. ) ;
#270 = CYLINDRICAL_SURFACE ( 'NONE', #126, 20.00000000000000000 ) ;
#271 = PERSON_AND_ORGANIZATION ( #29, #169 ) ;
#272 = DIRECTION ( 'NONE',  ( 1.000000000000000000, 0.000000000000000000, 0.000000000000000000 ) ) ;
#273 = ORIENTED_EDGE ( 'NONE', *, *, #324, .T. ) ;
#274 = APPROVAL ( #163, 'UNSPECIFIED' ) ;
#275 = CYLINDRICAL_SURFACE ( 'NONE', #73, 7.000000000000000000 ) ;
#276 = CIRCLE ( 'NONE', #27, 7.000000000000000000 ) ;
#277 = EDGE_CURVE ( 'NONE', #148, #280, #247, .T. ) ;
#278 = ORIENTED_EDGE ( 'NONE', *, *, #30, .F. ) ;
#279 = EDGE_LOOP ( 'NONE', ( #321, #329, #246, #203 ) ) ;
#280 = VERTEX_POINT ( 'NONE', #225 ) ;
#281 = CARTESIAN_POINT ( 'NONE',  ( 7.000000000000000000, 0.000000000000000000, 0.000000000000000000 ) ) ;
#282 = DIRECTION ( 'NONE',  ( 1.000000000000000000, 0.000000000000000000, 0.000000000000000000 ) ) ;
#283 = CC_DESIGN_APPROVAL ( #274, ( #309 ) ) ;
#284 = CARTESIAN_POINT ( 'NONE',  ( -10.00000000000000000, 1.224646799147353256E-15, 22.00000000000000000 ) ) ;
#285 = EDGE_CURVE ( 'NONE', #217, #22, #153, .T. ) ;
#286 = ADVANCED_BREP_SHAPE_REPRESENTATION ( 'bj300-12100', ( #243, #214 ), #113 ) ;
#287 = PRODUCT_RELATED_PRODUCT_CATEGORY ( 'detail', '', ( #233 ) ) ;
#288 = DIRECTION ( 'NONE',  ( 0.000000000000000000, 0.000000000000000000, 1.000000000000000000 ) ) ;
#289 = COORDINATED_UNIVERSAL_TIME_OFFSET ( 9, 0, .AHEAD. ) ;
#290 = AXIS2_PLACEMENT_3D ( 'NONE', #170, #291, #237 ) ;
#291 = DIRECTION ( 'NONE',  ( 0.000000000000000000, 0.000000000000000000, -1.000000000000000000 ) ) ;
#292 = APPROVAL_DATE_TIME ( #92, #274 ) ;
#293 = CARTESIAN_POINT ( 'NONE',  ( 0.000000000000000000, 0.000000000000000000, 40.00000000000000000 ) ) ;
#294 = PERSON_AND_ORGANIZATION ( #29, #169 ) ;
#295 = DIRECTION ( 'NONE',  ( 1.000000000000000000, 0.000000000000000000, 0.000000000000000000 ) ) ;
#296 = AXIS2_PLACEMENT_3D ( 'NONE', #311, #253, #254 ) ;
#297 = PERSON_AND_ORGANIZATION ( #29, #169 ) ;
#298 = PRODUCT_DEFINITION ( 'UNKNOWN', '', #235, #303 ) ;
#299 = CALENDAR_DATE ( 2021, 25, 10 ) ;
#300 = DIRECTION ( 'NONE',  ( 0.000000000000000000, 0.000000000000000000, 1.000000000000000000 ) ) ;
#301 = VERTEX_POINT ( 'NONE', #79 ) ;
#302 = DIRECTION ( 'NONE',  ( 1.000000000000000000, 0.000000000000000000, 0.000000000000000000 ) ) ;
#303 = DESIGN_CONTEXT ( 'detailed design', #230, 'design' ) ;
#304 = EDGE_LOOP ( 'NONE', ( #306, #223, #77, #78 ) ) ;
#305 = DIRECTION ( 'NONE',  ( 0.000000000000000000, 0.000000000000000000, 1.000000000000000000 ) ) ;
#306 = ORIENTED_EDGE ( 'NONE', *, *, #285, .F. ) ;
#307 = DIRECTION ( 'NONE',  ( 1.000000000000000000, 0.000000000000000000, 0.000000000000000000 ) ) ;
#308 = CC_DESIGN_PERSON_AND_ORGANIZATION_ASSIGNMENT ( #47, #15, ( #309 ) ) ;
#309 = SECURITY_CLASSIFICATION ( '', '', #187 ) ;
#310 = FACE_OUTER_BOUND ( 'NONE', #99, .T. ) ;
#311 = CARTESIAN_POINT ( 'NONE',  ( 0.000000000000000000, 0.000000000000000000, 0.000000000000000000 ) ) ;
#312 = VECTOR ( 'NONE', #300, 1000.000000000000000 ) ;
#313 = FACE_OUTER_BOUND ( 'NONE', #54, .T. ) ;
#314 = FACE_BOUND ( 'NONE', #18, .T. ) ;
#315 = APPLICATION_PROTOCOL_DEFINITION ( 'international standard', 'config_control_design', 1994, #230 ) ;
#316 = CARTESIAN_POINT ( 'NONE',  ( 20.00000000000000000, 0.000000000000000000, 0.000000000000000000 ) ) ;
#317 = PLANE ( 'NONE',  #108 ) ;
#318 = AXIS2_PLACEMENT_3D ( 'NONE', #129, #38, #1 ) ;
#319 = COORDINATED_UNIVERSAL_TIME_OFFSET ( 9, 0, .AHEAD. ) ;
#320 = DIRECTION ( 'NONE',  ( 0.000000000000000000, 0.000000000000000000, 1.000000000000000000 ) ) ;
#321 = ORIENTED_EDGE ( 'NONE', *, *, #144, .F. ) ;
#322 = PERSON_AND_ORGANIZATION_ROLE ( 'creator' ) ;
#323 = ORIENTED_EDGE ( 'NONE', *, *, #262, .F. ) ;
#324 = EDGE_CURVE ( 'NONE', #244, #24, #81, .T. ) ;
#325 = ORIENTED_EDGE ( 'NONE', *, *, #76, .F. ) ;
#326 = CLOSED_SHELL ( 'NONE', ( #256, #189, #21, #140, #32, #60, #180, #132, #224 ) ) ;
#327 = ORIENTED_EDGE ( 'NONE', *, *, #285, .T. ) ;
#328 = CARTESIAN_POINT ( 'NONE',  ( 0.000000000000000000, 0.000000000000000000, 40.00000000000000000 ) ) ;
#329 = ORIENTED_EDGE ( 'NONE', *, *, #35, .T. ) ;
ENDSEC;
END-ISO-10303-21;
