ISO-10303-21;
HEADER;
FILE_DESCRIPTION (( 'STEP AP203' ),
    '1' );
FILE_NAME ('bj400-12050.STEP',
    '2021-10-24T23:52:07',
    ( '' ),
    ( '' ),
    'SwSTEP 2.0',
    'SolidWorks 2020',
    '' );
FILE_SCHEMA (( 'CONFIG_CONTROL_DESIGN' ));
ENDSEC;

DATA;
#1 = ORIENTED_EDGE ( 'NONE', *, *, #287, .T. ) ;
#2 = PRODUCT_DEFINITION_FORMATION_WITH_SPECIFIED_SOURCE ( 'ANY', '', #144, .NOT_KNOWN. ) ;
#3 = PERSON_AND_ORGANIZATION_ROLE ( 'creator' ) ;
#4 = DATE_AND_TIME ( #149, #92 ) ;
#5 = CARTESIAN_POINT ( 'NONE',  ( 0.000000000000000000, 0.000000000000000000, 40.00000000000000000 ) ) ;
#6 = CALENDAR_DATE ( 2021, 25, 10 ) ;
#7 = LOCAL_TIME ( 8, 52, 7.000000000000000000, #8 ) ;
#8 = COORDINATED_UNIVERSAL_TIME_OFFSET ( 9, 0, .AHEAD. ) ;
#9 = DIRECTION ( 'NONE',  ( 0.000000000000000000, 0.000000000000000000, 1.000000000000000000 ) ) ;
#10 = PERSON ( 'UNSPECIFIED', 'UNSPECIFIED', 'UNSPECIFIED', ('UNSPECIFIED'), ('UNSPECIFIED'), ('UNSPECIFIED') ) ;
#11 = ADVANCED_FACE ( 'NONE', ( #106, #22 ), #145, .F. ) ;
#12 = APPROVAL_DATE_TIME ( #179, #60 ) ;
#13 = CC_DESIGN_PERSON_AND_ORGANIZATION_ASSIGNMENT ( #86, #148, ( #2 ) ) ;
#14 = ORIENTED_EDGE ( 'NONE', *, *, #202, .F. ) ;
#15 = CIRCLE ( 'NONE', #314, 10.00000000000000000 ) ;
#16 = VERTEX_POINT ( 'NONE', #283 ) ;
#17 = EDGE_CURVE ( 'NONE', #16, #228, #282, .T. ) ;
#18 = DIRECTION ( 'NONE',  ( 0.000000000000000000, 0.000000000000000000, 1.000000000000000000 ) ) ;
#19 = ORIENTED_EDGE ( 'NONE', *, *, #38, .T. ) ;
#20 = CARTESIAN_POINT ( 'NONE',  ( 0.000000000000000000, 0.000000000000000000, 0.000000000000000000 ) ) ;
#21 = CARTESIAN_POINT ( 'NONE',  ( 0.000000000000000000, 0.000000000000000000, 12.00000000000000000 ) ) ;
#22 = FACE_BOUND ( 'NONE', #129, .T. ) ;
#23 = DIRECTION ( 'NONE',  ( 0.000000000000000000, 0.000000000000000000, 1.000000000000000000 ) ) ;
#24 = CC_DESIGN_DATE_AND_TIME_ASSIGNMENT ( #285, #203, ( #176 ) ) ;
#25 = CIRCLE ( 'NONE', #196, 10.00000000000000000 ) ;
#26 = AXIS2_PLACEMENT_3D ( 'NONE', #91, #67, #241 ) ;
#27 = DIRECTION ( 'NONE',  ( 1.000000000000000000, 0.000000000000000000, 0.000000000000000000 ) ) ;
#28 = ORIENTED_EDGE ( 'NONE', *, *, #66, .F. ) ;
#29 = EDGE_CURVE ( 'NONE', #94, #59, #238, .T. ) ;
#30 = DIRECTION ( 'NONE',  ( 0.000000000000000000, 0.000000000000000000, 1.000000000000000000 ) ) ;
#31 = APPROVAL_PERSON_ORGANIZATION ( #151, #40, #177 ) ;
#32 = PERSON_AND_ORGANIZATION_ROLE ( 'classification_officer' ) ;
#33 = APPLICATION_PROTOCOL_DEFINITION ( 'international standard', 'config_control_design', 1994, #41 ) ;
#34 = LINE ( 'NONE', #242, #189 ) ;
#35 = DIRECTION ( 'NONE',  ( 0.000000000000000000, 0.000000000000000000, 1.000000000000000000 ) ) ;
#36 = AXIS2_PLACEMENT_3D ( 'NONE', #5, #305, #262 ) ;
#37 = PERSON_AND_ORGANIZATION ( #10, #169 ) ;
#38 = EDGE_CURVE ( 'NONE', #228, #16, #15, .T. ) ;
#39 = ORIENTED_EDGE ( 'NONE', *, *, #142, .F. ) ;
#40 = APPROVAL ( #306, 'UNSPECIFIED' ) ;
#41 = APPLICATION_CONTEXT ( 'configuration controlled 3d designs of mechanical parts and assemblies' ) ;
#42 = ORIENTED_EDGE ( 'NONE', *, *, #66, .T. ) ;
#43 = VECTOR ( 'NONE', #30, 1000.000000000000000 ) ;
#44 = CARTESIAN_POINT ( 'NONE',  ( 20.00000000000000000, 0.000000000000000000, 50.00000000000000000 ) ) ;
#45 = EDGE_LOOP ( 'NONE', ( #226, #221, #257, #280 ) ) ;
#46 = CYLINDRICAL_SURFACE ( 'NONE', #251, 10.00000000000000000 ) ;
#47 = ORIENTED_EDGE ( 'NONE', *, *, #249, .F. ) ;
#48 = ADVANCED_FACE ( 'NONE', ( #168 ), #297, .F. ) ;
#49 = DIRECTION ( 'NONE',  ( 0.000000000000000000, 0.000000000000000000, 1.000000000000000000 ) ) ;
#50 = DIRECTION ( 'NONE',  ( 0.000000000000000000, 0.000000000000000000, 1.000000000000000000 ) ) ;
#51 = AXIS2_PLACEMENT_3D ( 'NONE', #21, #138, #327 ) ;
#52 = ADVANCED_BREP_SHAPE_REPRESENTATION ( 'bj400-12050', ( #260, #292 ), #165 ) ;
#53 = DIRECTION ( 'NONE',  ( 0.000000000000000000, 0.000000000000000000, 1.000000000000000000 ) ) ;
#54 =( NAMED_UNIT ( * ) PLANE_ANGLE_UNIT ( ) SI_UNIT ( $, .RADIAN. ) );
#55 = VERTEX_POINT ( 'NONE', #143 ) ;
#56 = DIRECTION ( 'NONE',  ( -1.000000000000000000, 0.000000000000000000, 0.000000000000000000 ) ) ;
#57 = EDGE_LOOP ( 'NONE', ( #252, #259, #293, #133 ) ) ;
#58 = DATE_AND_TIME ( #87, #7 ) ;
#59 = VERTEX_POINT ( 'NONE', #107 ) ;
#60 = APPROVAL ( #119, 'UNSPECIFIED' ) ;
#61 = COORDINATED_UNIVERSAL_TIME_OFFSET ( 9, 0, .AHEAD. ) ;
#62 = CARTESIAN_POINT ( 'NONE',  ( 0.000000000000000000, 0.000000000000000000, 50.00000000000000000 ) ) ;
#63 = PERSON_AND_ORGANIZATION ( #10, #169 ) ;
#64 = UNCERTAINTY_MEASURE_WITH_UNIT (LENGTH_MEASURE( 1.000000000000000082E-05 ), #321, 'distance_accuracy_value', 'NONE');
#65 = APPROVAL_ROLE ( '' ) ;
#66 = EDGE_CURVE ( 'NONE', #134, #322, #192, .T. ) ;
#67 = DIRECTION ( 'NONE',  ( 0.000000000000000000, 0.000000000000000000, 1.000000000000000000 ) ) ;
#68 = CARTESIAN_POINT ( 'NONE',  ( 0.000000000000000000, 0.000000000000000000, 0.000000000000000000 ) ) ;
#69 = CIRCLE ( 'NONE', #313, 6.000000000000000000 ) ;
#70 = EDGE_LOOP ( 'NONE', ( #205, #244 ) ) ;
#71 = LINE ( 'NONE', #93, #156 ) ;
#72 = EDGE_LOOP ( 'NONE', ( #219, #270 ) ) ;
#73 = AXIS2_PLACEMENT_3D ( 'NONE', #105, #191, #56 ) ;
#74 = ADVANCED_FACE ( 'NONE', ( #178 ), #201, .F. ) ;
#75 = DIRECTION ( 'NONE',  ( 1.000000000000000000, 0.000000000000000000, 0.000000000000000000 ) ) ;
#76 = CLOSED_SHELL ( 'NONE', ( #48, #239, #74, #235, #11, #104, #193, #279, #301 ) ) ;
#77 = CARTESIAN_POINT ( 'NONE',  ( 10.00000000000000000, 0.000000000000000000, 40.00000000000000000 ) ) ;
#78 = DIRECTION ( 'NONE',  ( 0.000000000000000000, 0.000000000000000000, 1.000000000000000000 ) ) ;
#79 = CARTESIAN_POINT ( 'NONE',  ( 0.000000000000000000, 0.000000000000000000, 12.00000000000000000 ) ) ;
#80 = CARTESIAN_POINT ( 'NONE',  ( 0.000000000000000000, 0.000000000000000000, 0.000000000000000000 ) ) ;
#81 = VERTEX_POINT ( 'NONE', #213 ) ;
#82 = CARTESIAN_POINT ( 'NONE',  ( 6.000000000000000000, 0.000000000000000000, 0.000000000000000000 ) ) ;
#83 = DIRECTION ( 'NONE',  ( 1.000000000000000000, 0.000000000000000000, 0.000000000000000000 ) ) ;
#84 = CIRCLE ( 'NONE', #118, 6.000000000000000000 ) ;
#85 = ORIENTED_EDGE ( 'NONE', *, *, #202, .T. ) ;
#86 = PERSON_AND_ORGANIZATION ( #10, #169 ) ;
#87 = CALENDAR_DATE ( 2021, 25, 10 ) ;
#88 = COORDINATED_UNIVERSAL_TIME_OFFSET ( 9, 0, .AHEAD. ) ;
#89 = FACE_OUTER_BOUND ( 'NONE', #310, .T. ) ;
#90 = APPROVAL_DATE_TIME ( #58, #40 ) ;
#91 = CARTESIAN_POINT ( 'NONE',  ( 0.000000000000000000, 0.000000000000000000, 40.00000000000000000 ) ) ;
#92 = LOCAL_TIME ( 8, 52, 7.000000000000000000, #88 ) ;
#93 = CARTESIAN_POINT ( 'NONE',  ( 6.000000000000000000, 0.000000000000000000, 40.00000000000000000 ) ) ;
#94 = VERTEX_POINT ( 'NONE', #121 ) ;
#95 = DATE_AND_TIME ( #130, #160 ) ;
#96 = VERTEX_POINT ( 'NONE', #217 ) ;
#97 = DIRECTION ( 'NONE',  ( 0.000000000000000000, 0.000000000000000000, 1.000000000000000000 ) ) ;
#98 = EDGE_LOOP ( 'NONE', ( #291, #163, #85, #267 ) ) ;
#99 = LINE ( 'NONE', #218, #216 ) ;
#100 = CIRCLE ( 'NONE', #223, 20.00000000000000000 ) ;
#101 = CIRCLE ( 'NONE', #116, 20.00000000000000000 ) ;
#102 = DIRECTION ( 'NONE',  ( 1.000000000000000000, 0.000000000000000000, 0.000000000000000000 ) ) ;
#103 = EDGE_LOOP ( 'NONE', ( #172, #14 ) ) ;
#104 = ADVANCED_FACE ( 'NONE', ( #89 ), #307, .T. ) ;
#105 = CARTESIAN_POINT ( 'NONE',  ( 10.00000000000000000, 0.000000000000000000, 12.00000000000000000 ) ) ;
#106 = FACE_OUTER_BOUND ( 'NONE', #70, .T. ) ;
#107 = CARTESIAN_POINT ( 'NONE',  ( -6.000000000000000000, 7.347880794884119736E-16, 12.00000000000000000 ) ) ;
#108 = DIRECTION ( 'NONE',  ( 0.000000000000000000, 0.000000000000000000, 1.000000000000000000 ) ) ;
#109 = DIRECTION ( 'NONE',  ( 1.000000000000000000, 0.000000000000000000, 0.000000000000000000 ) ) ;
#110 = VECTOR ( 'NONE', #108, 1000.000000000000000 ) ;
#111 = CARTESIAN_POINT ( 'NONE',  ( 0.000000000000000000, 0.000000000000000000, 0.000000000000000000 ) ) ;
#112 = ORIENTED_EDGE ( 'NONE', *, *, #29, .F. ) ;
#113 = SECURITY_CLASSIFICATION_LEVEL ( 'unclassified' ) ;
#114 = EDGE_CURVE ( 'NONE', #96, #59, #264, .T. ) ;
#115 = DIRECTION ( 'NONE',  ( 0.000000000000000000, 0.000000000000000000, 1.000000000000000000 ) ) ;
#116 = AXIS2_PLACEMENT_3D ( 'NONE', #62, #9, #234 ) ;
#117 = DIRECTION ( 'NONE',  ( 1.000000000000000000, 0.000000000000000000, 0.000000000000000000 ) ) ;
#118 = AXIS2_PLACEMENT_3D ( 'NONE', #111, #49, #141 ) ;
#119 = APPROVAL_STATUS ( 'not_yet_approved' ) ;
#120 = MECHANICAL_CONTEXT ( 'NONE', #210, 'mechanical' ) ;
#121 = CARTESIAN_POINT ( 'NONE',  ( 6.000000000000000000, 0.000000000000000000, 12.00000000000000000 ) ) ;
#122 = CARTESIAN_POINT ( 'NONE',  ( 0.000000000000000000, 0.000000000000000000, 50.00000000000000000 ) ) ;
#123 = AXIS2_PLACEMENT_3D ( 'NONE', #211, #139, #170 ) ;
#124 = EDGE_LOOP ( 'NONE', ( #147, #42, #39, #171 ) ) ;
#125 = SHAPE_DEFINITION_REPRESENTATION ( #281, #52 ) ;
#126 = APPROVAL ( #304, 'UNSPECIFIED' ) ;
#127 = DIRECTION ( 'NONE',  ( 0.000000000000000000, 0.000000000000000000, 1.000000000000000000 ) ) ;
#128 = EDGE_CURVE ( 'NONE', #273, #96, #69, .T. ) ;
#129 = EDGE_LOOP ( 'NONE', ( #206, #161 ) ) ;
#130 = CALENDAR_DATE ( 2021, 25, 10 ) ;
#131 = CYLINDRICAL_SURFACE ( 'NONE', #253, 6.000000000000000000 ) ;
#132 = AXIS2_PLACEMENT_3D ( 'NONE', #300, #195, #140 ) ;
#133 = ORIENTED_EDGE ( 'NONE', *, *, #232, .T. ) ;
#134 = VERTEX_POINT ( 'NONE', #153 ) ;
#135 = EDGE_LOOP ( 'NONE', ( #112, #255 ) ) ;
#136 = PLANE ( 'NONE',  #73 ) ;
#137 = EDGE_CURVE ( 'NONE', #322, #187, #101, .T. ) ;
#138 = DIRECTION ( 'NONE',  ( 0.000000000000000000, 0.000000000000000000, 1.000000000000000000 ) ) ;
#139 = DIRECTION ( 'NONE',  ( 0.000000000000000000, 0.000000000000000000, 1.000000000000000000 ) ) ;
#140 = DIRECTION ( 'NONE',  ( 1.000000000000000000, 0.000000000000000000, 0.000000000000000000 ) ) ;
#141 = DIRECTION ( 'NONE',  ( 1.000000000000000000, 0.000000000000000000, 0.000000000000000000 ) ) ;
#142 = EDGE_CURVE ( 'NONE', #187, #322, #100, .T. ) ;
#143 = CARTESIAN_POINT ( 'NONE',  ( 20.00000000000000000, 0.000000000000000000, 0.000000000000000000 ) ) ;
#144 = PRODUCT ( 'bj400-12050', 'bj400-12050', '', ( #120 ) ) ;
#145 = PLANE ( 'NONE',  #132 ) ;
#146 = LINE ( 'NONE', #77, #110 ) ;
#147 = ORIENTED_EDGE ( 'NONE', *, *, #180, .T. ) ;
#148 = PERSON_AND_ORGANIZATION_ROLE ( 'design_supplier' ) ;
#149 = CALENDAR_DATE ( 2021, 25, 10 ) ;
#150 = AXIS2_PLACEMENT_3D ( 'NONE', #79, #328, #277 ) ;
#151 = PERSON_AND_ORGANIZATION ( #10, #169 ) ;
#152 = CARTESIAN_POINT ( 'NONE',  ( -6.000000000000000000, 7.347880794884119736E-16, 40.00000000000000000 ) ) ;
#153 = CARTESIAN_POINT ( 'NONE',  ( -20.00000000000000000, 2.449293598294706513E-15, 0.000000000000000000 ) ) ;
#154 = CARTESIAN_POINT ( 'NONE',  ( -20.00000000000000000, 2.449293598294706513E-15, 40.00000000000000000 ) ) ;
#155 = AXIS2_PLACEMENT_3D ( 'NONE', #164, #250, #268 ) ;
#156 = VECTOR ( 'NONE', #319, 1000.000000000000000 ) ;
#157 = CC_DESIGN_PERSON_AND_ORGANIZATION_ASSIGNMENT ( #261, #32, ( #173 ) ) ;
#158 = EDGE_CURVE ( 'NONE', #55, #187, #34, .T. ) ;
#159 = CARTESIAN_POINT ( 'NONE',  ( -10.00000000000000000, 1.224646799147353256E-15, 12.00000000000000000 ) ) ;
#160 = LOCAL_TIME ( 8, 52, 7.000000000000000000, #286 ) ;
#161 = ORIENTED_EDGE ( 'NONE', *, *, #249, .T. ) ;
#162 = FACE_OUTER_BOUND ( 'NONE', #72, .T. ) ;
#163 = ORIENTED_EDGE ( 'NONE', *, *, #224, .T. ) ;
#164 = CARTESIAN_POINT ( 'NONE',  ( 20.00000000000000000, 0.000000000000000000, 50.00000000000000000 ) ) ;
#165 =( GEOMETRIC_REPRESENTATION_CONTEXT ( 3 ) GLOBAL_UNCERTAINTY_ASSIGNED_CONTEXT ( ( #64 ) ) GLOBAL_UNIT_ASSIGNED_CONTEXT ( ( #321, #54, #276 ) ) REPRESENTATION_CONTEXT ( 'NONE', 'WORKASPACE' ) );
#166 = CARTESIAN_POINT ( 'NONE',  ( 0.000000000000000000, 0.000000000000000000, 12.00000000000000000 ) ) ;
#167 = ORIENTED_EDGE ( 'NONE', *, *, #17, .T. ) ;
#168 = FACE_OUTER_BOUND ( 'NONE', #98, .T. ) ;
#169 = ORGANIZATION ( 'UNSPECIFIED', 'UNSPECIFIED', '' ) ;
#170 = DIRECTION ( 'NONE',  ( 1.000000000000000000, 0.000000000000000000, 0.000000000000000000 ) ) ;
#171 = ORIENTED_EDGE ( 'NONE', *, *, #158, .F. ) ;
#172 = ORIENTED_EDGE ( 'NONE', *, *, #232, .F. ) ;
#173 = SECURITY_CLASSIFICATION ( '', '', #113 ) ;
#174 = APPROVAL_PERSON_ORGANIZATION ( #63, #60, #65 ) ;
#175 = COORDINATED_UNIVERSAL_TIME_OFFSET ( 9, 0, .AHEAD. ) ;
#176 = PRODUCT_DEFINITION ( 'UNKNOWN', '', #2, #265 ) ;
#177 = APPROVAL_ROLE ( '' ) ;
#178 = FACE_OUTER_BOUND ( 'NONE', #184, .T. ) ;
#179 = DATE_AND_TIME ( #6, #308 ) ;
#180 = EDGE_CURVE ( 'NONE', #55, #134, #284, .T. ) ;
#181 = PLANE ( 'NONE',  #155 ) ;
#182 = FACE_BOUND ( 'NONE', #103, .T. ) ;
#183 = CARTESIAN_POINT ( 'NONE',  ( 0.000000000000000000, 0.000000000000000000, 0.000000000000000000 ) ) ;
#184 = EDGE_LOOP ( 'NONE', ( #47, #194, #1, #248 ) ) ;
#185 = CIRCLE ( 'NONE', #289, 20.00000000000000000 ) ;
#186 = DIRECTION ( 'NONE',  ( 0.000000000000000000, 0.000000000000000000, 1.000000000000000000 ) ) ;
#187 = VERTEX_POINT ( 'NONE', #44 ) ;
#188 = EDGE_CURVE ( 'NONE', #273, #94, #71, .T. ) ;
#189 = VECTOR ( 'NONE', #317, 1000.000000000000000 ) ;
#190 = CARTESIAN_POINT ( 'NONE',  ( 0.000000000000000000, 0.000000000000000000, 40.00000000000000000 ) ) ;
#191 = DIRECTION ( 'NONE',  ( 0.000000000000000000, 0.000000000000000000, -1.000000000000000000 ) ) ;
#192 = LINE ( 'NONE', #154, #43 ) ;
#193 = ADVANCED_FACE ( 'NONE', ( #182, #162 ), #181, .F. ) ;
#194 = ORIENTED_EDGE ( 'NONE', *, *, #114, .T. ) ;
#195 = DIRECTION ( 'NONE',  ( 0.000000000000000000, 0.000000000000000000, 1.000000000000000000 ) ) ;
#196 = AXIS2_PLACEMENT_3D ( 'NONE', #122, #18, #222 ) ;
#197 = AXIS2_PLACEMENT_3D ( 'NONE', #183, #97, #75 ) ;
#198 = CC_DESIGN_APPROVAL ( #40, ( #176 ) ) ;
#199 = APPROVAL_ROLE ( '' ) ;
#200 = DIRECTION ( 'NONE',  ( 1.000000000000000000, 0.000000000000000000, 0.000000000000000000 ) ) ;
#201 = CYLINDRICAL_SURFACE ( 'NONE', #26, 6.000000000000000000 ) ;
#202 = EDGE_CURVE ( 'NONE', #81, #312, #25, .T. ) ;
#203 = DATE_TIME_ROLE ( 'creation_date' ) ;
#204 = CC_DESIGN_SECURITY_CLASSIFICATION ( #173, ( #2 ) ) ;
#205 = ORIENTED_EDGE ( 'NONE', *, *, #180, .F. ) ;
#206 = ORIENTED_EDGE ( 'NONE', *, *, #128, .T. ) ;
#207 = CARTESIAN_POINT ( 'NONE',  ( 10.00000000000000000, 0.000000000000000000, 50.00000000000000000 ) ) ;
#208 = CC_DESIGN_PERSON_AND_ORGANIZATION_ASSIGNMENT ( #240, #3, ( #176 ) ) ;
#209 = CYLINDRICAL_SURFACE ( 'NONE', #123, 20.00000000000000000 ) ;
#210 = APPLICATION_CONTEXT ( 'configuration controlled 3d designs of mechanical parts and assemblies' ) ;
#211 = CARTESIAN_POINT ( 'NONE',  ( 0.000000000000000000, 0.000000000000000000, 40.00000000000000000 ) ) ;
#212 = CARTESIAN_POINT ( 'NONE',  ( 0.000000000000000000, 0.000000000000000000, 40.00000000000000000 ) ) ;
#213 = CARTESIAN_POINT ( 'NONE',  ( -10.00000000000000000, 1.224646799147353256E-15, 50.00000000000000000 ) ) ;
#214 = PERSON_AND_ORGANIZATION ( #10, #169 ) ;
#215 = PERSON_AND_ORGANIZATION ( #10, #169 ) ;
#216 = VECTOR ( 'NONE', #309, 1000.000000000000000 ) ;
#217 = CARTESIAN_POINT ( 'NONE',  ( -6.000000000000000000, 7.347880794884119736E-16, 0.000000000000000000 ) ) ;
#218 = CARTESIAN_POINT ( 'NONE',  ( -10.00000000000000000, 1.224646799147353256E-15, 40.00000000000000000 ) ) ;
#219 = ORIENTED_EDGE ( 'NONE', *, *, #142, .T. ) ;
#220 = CARTESIAN_POINT ( 'NONE',  ( 0.000000000000000000, 0.000000000000000000, 40.00000000000000000 ) ) ;
#221 = ORIENTED_EDGE ( 'NONE', *, *, #128, .F. ) ;
#222 = DIRECTION ( 'NONE',  ( 1.000000000000000000, 0.000000000000000000, 0.000000000000000000 ) ) ;
#223 = AXIS2_PLACEMENT_3D ( 'NONE', #263, #115, #303 ) ;
#224 = EDGE_CURVE ( 'NONE', #228, #81, #99, .T. ) ;
#225 = DIRECTION ( 'NONE',  ( 0.000000000000000000, 0.000000000000000000, 1.000000000000000000 ) ) ;
#226 = ORIENTED_EDGE ( 'NONE', *, *, #114, .F. ) ;
#227 = VECTOR ( 'NONE', #237, 1000.000000000000000 ) ;
#228 = VERTEX_POINT ( 'NONE', #159 ) ;
#229 = PRODUCT_RELATED_PRODUCT_CATEGORY ( 'detail', '', ( #144 ) ) ;
#230 = DIRECTION ( 'NONE',  ( 1.000000000000000000, 0.000000000000000000, 0.000000000000000000 ) ) ;
#231 = ORIENTED_EDGE ( 'NONE', *, *, #246, .T. ) ;
#232 = EDGE_CURVE ( 'NONE', #312, #81, #258, .T. ) ;
#233 = LOCAL_TIME ( 8, 52, 7.000000000000000000, #61 ) ;
#234 = DIRECTION ( 'NONE',  ( 1.000000000000000000, 0.000000000000000000, 0.000000000000000000 ) ) ;
#235 = ADVANCED_FACE ( 'NONE', ( #245 ), #131, .F. ) ;
#236 = DATE_TIME_ROLE ( 'classification_date' ) ;
#237 = DIRECTION ( 'NONE',  ( 0.000000000000000000, 0.000000000000000000, 1.000000000000000000 ) ) ;
#238 = CIRCLE ( 'NONE', #150, 6.000000000000000000 ) ;
#239 = ADVANCED_FACE ( 'NONE', ( #274 ), #209, .T. ) ;
#240 = PERSON_AND_ORGANIZATION ( #10, #169 ) ;
#241 = DIRECTION ( 'NONE',  ( 1.000000000000000000, 0.000000000000000000, 0.000000000000000000 ) ) ;
#242 = CARTESIAN_POINT ( 'NONE',  ( 20.00000000000000000, 0.000000000000000000, 40.00000000000000000 ) ) ;
#243 = CARTESIAN_POINT ( 'NONE',  ( 0.000000000000000000, 0.000000000000000000, 50.00000000000000000 ) ) ;
#244 = ORIENTED_EDGE ( 'NONE', *, *, #246, .F. ) ;
#245 = FACE_OUTER_BOUND ( 'NONE', #45, .T. ) ;
#246 = EDGE_CURVE ( 'NONE', #134, #55, #185, .T. ) ;
#247 = ORIENTED_EDGE ( 'NONE', *, *, #158, .T. ) ;
#248 = ORIENTED_EDGE ( 'NONE', *, *, #188, .F. ) ;
#249 = EDGE_CURVE ( 'NONE', #96, #273, #84, .T. ) ;
#250 = DIRECTION ( 'NONE',  ( 0.000000000000000000, 0.000000000000000000, -1.000000000000000000 ) ) ;
#251 = AXIS2_PLACEMENT_3D ( 'NONE', #212, #225, #299 ) ;
#252 = ORIENTED_EDGE ( 'NONE', *, *, #224, .F. ) ;
#253 = AXIS2_PLACEMENT_3D ( 'NONE', #220, #78, #230 ) ;
#254 = FACE_BOUND ( 'NONE', #135, .T. ) ;
#255 = ORIENTED_EDGE ( 'NONE', *, *, #287, .F. ) ;
#256 = APPROVAL_PERSON_ORGANIZATION ( #214, #126, #199 ) ;
#257 = ORIENTED_EDGE ( 'NONE', *, *, #188, .T. ) ;
#258 = CIRCLE ( 'NONE', #320, 10.00000000000000000 ) ;
#259 = ORIENTED_EDGE ( 'NONE', *, *, #17, .F. ) ;
#260 = MANIFOLD_SOLID_BREP ( 'Imported1', #76 ) ;
#261 = PERSON_AND_ORGANIZATION ( #10, #169 ) ;
#262 = DIRECTION ( 'NONE',  ( 1.000000000000000000, 0.000000000000000000, 0.000000000000000000 ) ) ;
#263 = CARTESIAN_POINT ( 'NONE',  ( 0.000000000000000000, 0.000000000000000000, 50.00000000000000000 ) ) ;
#264 = LINE ( 'NONE', #152, #227 ) ;
#265 = DESIGN_CONTEXT ( 'detailed design', #41, 'design' ) ;
#266 = PERSON_AND_ORGANIZATION_ROLE ( 'design_owner' ) ;
#267 = ORIENTED_EDGE ( 'NONE', *, *, #329, .F. ) ;
#268 = DIRECTION ( 'NONE',  ( -1.000000000000000000, 0.000000000000000000, 0.000000000000000000 ) ) ;
#269 = CC_DESIGN_PERSON_AND_ORGANIZATION_ASSIGNMENT ( #37, #302, ( #2 ) ) ;
#270 = ORIENTED_EDGE ( 'NONE', *, *, #137, .T. ) ;
#271 = DIRECTION ( 'NONE',  ( 0.000000000000000000, 0.000000000000000000, 1.000000000000000000 ) ) ;
#272 = CC_DESIGN_APPROVAL ( #126, ( #173 ) ) ;
#273 = VERTEX_POINT ( 'NONE', #82 ) ;
#274 = FACE_OUTER_BOUND ( 'NONE', #124, .T. ) ;
#275 = CARTESIAN_POINT ( 'NONE',  ( 0.000000000000000000, 0.000000000000000000, 12.00000000000000000 ) ) ;
#276 =( NAMED_UNIT ( * ) SI_UNIT ( $, .STERADIAN. ) SOLID_ANGLE_UNIT ( ) );
#277 = DIRECTION ( 'NONE',  ( 1.000000000000000000, 0.000000000000000000, 0.000000000000000000 ) ) ;
#278 = APPLICATION_PROTOCOL_DEFINITION ( 'international standard', 'config_control_design', 1994, #210 ) ;
#279 = ADVANCED_FACE ( 'NONE', ( #326 ), #46, .F. ) ;
#280 = ORIENTED_EDGE ( 'NONE', *, *, #29, .T. ) ;
#281 = PRODUCT_DEFINITION_SHAPE ( 'NONE', 'NONE',  #176 ) ;
#282 = CIRCLE ( 'NONE', #51, 10.00000000000000000 ) ;
#283 = CARTESIAN_POINT ( 'NONE',  ( 10.00000000000000000, 0.000000000000000000, 12.00000000000000000 ) ) ;
#284 = CIRCLE ( 'NONE', #197, 20.00000000000000000 ) ;
#285 = DATE_AND_TIME ( #288, #233 ) ;
#286 = COORDINATED_UNIVERSAL_TIME_OFFSET ( 9, 0, .AHEAD. ) ;
#287 = EDGE_CURVE ( 'NONE', #59, #94, #296, .T. ) ;
#288 = CALENDAR_DATE ( 2021, 25, 10 ) ;
#289 = AXIS2_PLACEMENT_3D ( 'NONE', #80, #271, #102 ) ;
#290 = CC_DESIGN_DATE_AND_TIME_ASSIGNMENT ( #4, #236, ( #173 ) ) ;
#291 = ORIENTED_EDGE ( 'NONE', *, *, #38, .F. ) ;
#292 = AXIS2_PLACEMENT_3D ( 'NONE', #20, #53, #117 ) ;
#293 = ORIENTED_EDGE ( 'NONE', *, *, #329, .T. ) ;
#294 = AXIS2_PLACEMENT_3D ( 'NONE', #166, #186, #27 ) ;
#295 = CARTESIAN_POINT ( 'NONE',  ( -20.00000000000000000, 2.449293598294706513E-15, 50.00000000000000000 ) ) ;
#296 = CIRCLE ( 'NONE', #294, 6.000000000000000000 ) ;
#297 = CYLINDRICAL_SURFACE ( 'NONE', #298, 10.00000000000000000 ) ;
#298 = AXIS2_PLACEMENT_3D ( 'NONE', #190, #23, #109 ) ;
#299 = DIRECTION ( 'NONE',  ( 1.000000000000000000, 0.000000000000000000, 0.000000000000000000 ) ) ;
#300 = CARTESIAN_POINT ( 'NONE',  ( 6.000000000000000000, 0.000000000000000000, 0.000000000000000000 ) ) ;
#301 = ADVANCED_FACE ( 'NONE', ( #254, #324 ), #136, .F. ) ;
#302 = PERSON_AND_ORGANIZATION_ROLE ( 'creator' ) ;
#303 = DIRECTION ( 'NONE',  ( 1.000000000000000000, 0.000000000000000000, 0.000000000000000000 ) ) ;
#304 = APPROVAL_STATUS ( 'not_yet_approved' ) ;
#305 = DIRECTION ( 'NONE',  ( 0.000000000000000000, 0.000000000000000000, 1.000000000000000000 ) ) ;
#306 = APPROVAL_STATUS ( 'not_yet_approved' ) ;
#307 = CYLINDRICAL_SURFACE ( 'NONE', #36, 20.00000000000000000 ) ;
#308 = LOCAL_TIME ( 8, 52, 7.000000000000000000, #175 ) ;
#309 = DIRECTION ( 'NONE',  ( 0.000000000000000000, 0.000000000000000000, 1.000000000000000000 ) ) ;
#310 = EDGE_LOOP ( 'NONE', ( #28, #231, #247, #325 ) ) ;
#311 = DIRECTION ( 'NONE',  ( 1.000000000000000000, 0.000000000000000000, 0.000000000000000000 ) ) ;
#312 = VERTEX_POINT ( 'NONE', #207 ) ;
#313 = AXIS2_PLACEMENT_3D ( 'NONE', #68, #35, #200 ) ;
#314 = AXIS2_PLACEMENT_3D ( 'NONE', #275, #50, #83 ) ;
#315 = CC_DESIGN_PERSON_AND_ORGANIZATION_ASSIGNMENT ( #215, #266, ( #144 ) ) ;
#316 = APPROVAL_DATE_TIME ( #95, #126 ) ;
#317 = DIRECTION ( 'NONE',  ( 0.000000000000000000, 0.000000000000000000, 1.000000000000000000 ) ) ;
#318 = EDGE_LOOP ( 'NONE', ( #167, #19 ) ) ;
#319 = DIRECTION ( 'NONE',  ( 0.000000000000000000, 0.000000000000000000, 1.000000000000000000 ) ) ;
#320 = AXIS2_PLACEMENT_3D ( 'NONE', #243, #127, #311 ) ;
#321 =( LENGTH_UNIT ( ) NAMED_UNIT ( * ) SI_UNIT ( .MILLI., .METRE. ) );
#322 = VERTEX_POINT ( 'NONE', #295 ) ;
#323 = CC_DESIGN_APPROVAL ( #60, ( #2 ) ) ;
#324 = FACE_OUTER_BOUND ( 'NONE', #318, .T. ) ;
#325 = ORIENTED_EDGE ( 'NONE', *, *, #137, .F. ) ;
#326 = FACE_OUTER_BOUND ( 'NONE', #57, .T. ) ;
#327 = DIRECTION ( 'NONE',  ( 1.000000000000000000, 0.000000000000000000, 0.000000000000000000 ) ) ;
#328 = DIRECTION ( 'NONE',  ( 0.000000000000000000, 0.000000000000000000, 1.000000000000000000 ) ) ;
#329 = EDGE_CURVE ( 'NONE', #16, #312, #146, .T. ) ;
ENDSEC;
END-ISO-10303-21;
