ISO-10303-21;
HEADER;
FILE_DESCRIPTION (( 'STEP AP203' ),
    '1' );
FILE_NAME ('bj623-08004.STEP',
    '2021-10-24T23:57:23',
    ( '' ),
    ( '' ),
    'SwSTEP 2.0',
    'SolidWorks 2020',
    '' );
FILE_SCHEMA (( 'CONFIG_CONTROL_DESIGN' ));
ENDSEC;

DATA;
#1 = DIRECTION ( 'NONE',  ( 0.000000000000000000, 0.000000000000000000, 1.000000000000000000 ) ) ;
#2 =( LENGTH_UNIT ( ) NAMED_UNIT ( * ) SI_UNIT ( .MILLI., .METRE. ) );
#3 = AXIS2_PLACEMENT_3D ( 'NONE', #109, #18, #232 ) ;
#4 = AXIS2_PLACEMENT_3D ( 'NONE', #14, #174, #59 ) ;
#5 = ORIENTED_EDGE ( 'NONE', *, *, #35, .T. ) ;
#6 = CC_DESIGN_PERSON_AND_ORGANIZATION_ASSIGNMENT ( #49, #162, ( #167 ) ) ;
#7 = VERTEX_POINT ( 'NONE', #10 ) ;
#8 = DIRECTION ( 'NONE',  ( -1.000000000000000000, 0.000000000000000000, 0.000000000000000000 ) ) ;
#9 =( GEOMETRIC_REPRESENTATION_CONTEXT ( 3 ) GLOBAL_UNCERTAINTY_ASSIGNED_CONTEXT ( ( #234 ) ) GLOBAL_UNIT_ASSIGNED_CONTEXT ( ( #2, #93, #228 ) ) REPRESENTATION_CONTEXT ( 'NONE', 'WORKASPACE' ) );
#10 = CARTESIAN_POINT ( 'NONE',  ( -17.50000000000000000, 0.000000000000000000, 10.00000000000000000 ) ) ;
#11 = VERTEX_POINT ( 'NONE', #204 ) ;
#12 = CARTESIAN_POINT ( 'NONE',  ( 0.000000000000000000, 0.000000000000000000, 10.00000000000000000 ) ) ;
#13 = DIRECTION ( 'NONE',  ( 1.000000000000000000, 0.000000000000000000, 0.000000000000000000 ) ) ;
#14 = CARTESIAN_POINT ( 'NONE',  ( 0.000000000000000000, 0.000000000000000000, 0.000000000000000000 ) ) ;
#15 = MANIFOLD_SOLID_BREP ( 'Imported1', #83 ) ;
#16 = CARTESIAN_POINT ( 'NONE',  ( 0.000000000000000000, 0.000000000000000000, 10.00000000000000000 ) ) ;
#17 = VECTOR ( 'NONE', #80, 1000.000000000000000 ) ;
#18 = DIRECTION ( 'NONE',  ( 0.000000000000000000, 0.000000000000000000, 1.000000000000000000 ) ) ;
#19 = EDGE_CURVE ( 'NONE', #218, #239, #201, .T. ) ;
#20 = ORIENTED_EDGE ( 'NONE', *, *, #19, .F. ) ;
#21 = ORIENTED_EDGE ( 'NONE', *, *, #216, .F. ) ;
#22 = ADVANCED_FACE ( 'NONE', ( #202 ), #159, .T. ) ;
#23 = ORIENTED_EDGE ( 'NONE', *, *, #164, .T. ) ;
#24 = PERSON_AND_ORGANIZATION_ROLE ( 'creator' ) ;
#25 = ORIENTED_EDGE ( 'NONE', *, *, #155, .T. ) ;
#26 = CIRCLE ( 'NONE', #3, 4.200000000000000178 ) ;
#27 = AXIS2_PLACEMENT_3D ( 'NONE', #16, #96, #172 ) ;
#28 = COORDINATED_UNIVERSAL_TIME_OFFSET ( 9, 0, .AHEAD. ) ;
#29 = ORIENTED_EDGE ( 'NONE', *, *, #240, .T. ) ;
#30 = EDGE_CURVE ( 'NONE', #200, #138, #41, .T. ) ;
#31 = CALENDAR_DATE ( 2021, 25, 10 ) ;
#32 = FACE_OUTER_BOUND ( 'NONE', #66, .T. ) ;
#33 = APPROVAL_ROLE ( '' ) ;
#34 = CYLINDRICAL_SURFACE ( 'NONE', #248, 4.200000000000000178 ) ;
#35 = EDGE_CURVE ( 'NONE', #7, #218, #152, .T. ) ;
#36 = CARTESIAN_POINT ( 'NONE',  ( 0.000000000000000000, 0.000000000000000000, 0.000000000000000000 ) ) ;
#37 = CARTESIAN_POINT ( 'NONE',  ( 0.000000000000000000, 0.000000000000000000, 0.000000000000000000 ) ) ;
#38 = DESIGN_CONTEXT ( 'detailed design', #131, 'design' ) ;
#39 = ADVANCED_FACE ( 'NONE', ( #57 ), #34, .F. ) ;
#40 = CARTESIAN_POINT ( 'NONE',  ( 17.50000000000000000, 2.143131898507868248E-15, 0.000000000000000000 ) ) ;
#41 = CIRCLE ( 'NONE', #114, 4.200000000000000178 ) ;
#42 = ADVANCED_FACE ( 'NONE', ( #108 ), #210, .F. ) ;
#43 = LINE ( 'NONE', #199, #206 ) ;
#44 = PRODUCT_DEFINITION_SHAPE ( 'NONE', 'NONE',  #214 ) ;
#45 = EDGE_LOOP ( 'NONE', ( #21, #186, #25, #94 ) ) ;
#46 = CC_DESIGN_PERSON_AND_ORGANIZATION_ASSIGNMENT ( #223, #156, ( #214 ) ) ;
#47 = ORIENTED_EDGE ( 'NONE', *, *, #151, .F. ) ;
#48 = APPROVAL_STATUS ( 'not_yet_approved' ) ;
#49 = PERSON_AND_ORGANIZATION ( #154, #231 ) ;
#50 = APPROVAL_STATUS ( 'not_yet_approved' ) ;
#51 = CYLINDRICAL_SURFACE ( 'NONE', #198, 17.50000000000000000 ) ;
#52 = APPROVAL_DATE_TIME ( #203, #236 ) ;
#53 = LINE ( 'NONE', #149, #175 ) ;
#54 = MECHANICAL_CONTEXT ( 'NONE', #118, 'mechanical' ) ;
#55 = PLANE ( 'NONE',  #88 ) ;
#56 = LOCAL_TIME ( 8, 57, 23.00000000000000000, #238 ) ;
#57 = FACE_OUTER_BOUND ( 'NONE', #157, .T. ) ;
#58 = DATE_AND_TIME ( #31, #215 ) ;
#59 = DIRECTION ( 'NONE',  ( 1.000000000000000000, 0.000000000000000000, 0.000000000000000000 ) ) ;
#60 = DIRECTION ( 'NONE',  ( 0.000000000000000000, 0.000000000000000000, -1.000000000000000000 ) ) ;
#61 = SECURITY_CLASSIFICATION ( '', '', #185 ) ;
#62 = SHAPE_DEFINITION_REPRESENTATION ( #44, #235 ) ;
#63 = LOCAL_TIME ( 8, 57, 23.00000000000000000, #221 ) ;
#64 = ORIENTED_EDGE ( 'NONE', *, *, #115, .T. ) ;
#65 = CARTESIAN_POINT ( 'NONE',  ( 0.000000000000000000, 0.000000000000000000, 0.000000000000000000 ) ) ;
#66 = EDGE_LOOP ( 'NONE', ( #119, #116 ) ) ;
#67 = EDGE_CURVE ( 'NONE', #85, #239, #78, .T. ) ;
#68 = DATE_AND_TIME ( #91, #137 ) ;
#69 = DIRECTION ( 'NONE',  ( 0.000000000000000000, 0.000000000000000000, -1.000000000000000000 ) ) ;
#70 = APPROVAL_ROLE ( '' ) ;
#71 = DIRECTION ( 'NONE',  ( 1.000000000000000000, 0.000000000000000000, 0.000000000000000000 ) ) ;
#72 = APPROVAL_PERSON_ORGANIZATION ( #146, #196, #122 ) ;
#73 = APPLICATION_PROTOCOL_DEFINITION ( 'international standard', 'config_control_design', 1994, #131 ) ;
#74 = CARTESIAN_POINT ( 'NONE',  ( -17.50000000000000000, 0.000000000000000000, 0.000000000000000000 ) ) ;
#75 = PLANE ( 'NONE',  #147 ) ;
#76 = EDGE_CURVE ( 'NONE', #86, #11, #26, .T. ) ;
#77 = DIRECTION ( 'NONE',  ( 0.000000000000000000, 0.000000000000000000, -1.000000000000000000 ) ) ;
#78 = CIRCLE ( 'NONE', #217, 17.50000000000000000 ) ;
#79 = APPROVAL_PERSON_ORGANIZATION ( #211, #236, #70 ) ;
#80 = DIRECTION ( 'NONE',  ( 0.000000000000000000, 0.000000000000000000, -1.000000000000000000 ) ) ;
#81 = AXIS2_PLACEMENT_3D ( 'NONE', #182, #69, #8 ) ;
#82 = CC_DESIGN_APPROVAL ( #236, ( #167 ) ) ;
#83 = CLOSED_SHELL ( 'NONE', ( #42, #22, #187, #134, #180, #39 ) ) ;
#84 = CALENDAR_DATE ( 2021, 25, 10 ) ;
#85 = VERTEX_POINT ( 'NONE', #74 ) ;
#86 = VERTEX_POINT ( 'NONE', #192 ) ;
#87 = CC_DESIGN_APPROVAL ( #123, ( #214 ) ) ;
#88 = AXIS2_PLACEMENT_3D ( 'NONE', #95, #171, #135 ) ;
#89 = CARTESIAN_POINT ( 'NONE',  ( 0.000000000000000000, 0.000000000000000000, 0.000000000000000000 ) ) ;
#90 = CC_DESIGN_DATE_AND_TIME_ASSIGNMENT ( #68, #165, ( #61 ) ) ;
#91 = CALENDAR_DATE ( 2021, 25, 10 ) ;
#92 = ORIENTED_EDGE ( 'NONE', *, *, #76, .F. ) ;
#93 =( NAMED_UNIT ( * ) PLANE_ANGLE_UNIT ( ) SI_UNIT ( $, .RADIAN. ) );
#94 = ORIENTED_EDGE ( 'NONE', *, *, #191, .F. ) ;
#95 = CARTESIAN_POINT ( 'NONE',  ( 0.000000000000000000, 0.000000000000000000, 10.00000000000000000 ) ) ;
#96 = DIRECTION ( 'NONE',  ( 0.000000000000000000, 0.000000000000000000, 1.000000000000000000 ) ) ;
#97 = AXIS2_PLACEMENT_3D ( 'NONE', #37, #194, #13 ) ;
#98 = CARTESIAN_POINT ( 'NONE',  ( 0.000000000000000000, 0.000000000000000000, 0.000000000000000000 ) ) ;
#99 = ORIENTED_EDGE ( 'NONE', *, *, #151, .T. ) ;
#100 = EDGE_LOOP ( 'NONE', ( #92, #47 ) ) ;
#101 = PRODUCT_RELATED_PRODUCT_CATEGORY ( 'detail', '', ( #158 ) ) ;
#102 = ORIENTED_EDGE ( 'NONE', *, *, #164, .F. ) ;
#103 = CALENDAR_DATE ( 2021, 25, 10 ) ;
#104 = CARTESIAN_POINT ( 'NONE',  ( 17.50000000000000000, 2.143131898507868248E-15, 10.00000000000000000 ) ) ;
#105 = APPROVAL_DATE_TIME ( #144, #123 ) ;
#106 = CARTESIAN_POINT ( 'NONE',  ( 0.000000000000000000, 0.000000000000000000, 10.00000000000000000 ) ) ;
#107 = APPROVAL_STATUS ( 'not_yet_approved' ) ;
#108 = FACE_OUTER_BOUND ( 'NONE', #166, .T. ) ;
#109 = CARTESIAN_POINT ( 'NONE',  ( 0.000000000000000000, 0.000000000000000000, 10.00000000000000000 ) ) ;
#110 = APPROVAL_DATE_TIME ( #58, #196 ) ;
#111 = DIRECTION ( 'NONE',  ( 0.000000000000000000, 0.000000000000000000, 1.000000000000000000 ) ) ;
#112 = AXIS2_PLACEMENT_3D ( 'NONE', #12, #226, #193 ) ;
#113 = CC_DESIGN_DATE_AND_TIME_ASSIGNMENT ( #225, #142, ( #214 ) ) ;
#114 = AXIS2_PLACEMENT_3D ( 'NONE', #89, #161, #163 ) ;
#115 = EDGE_CURVE ( 'NONE', #138, #200, #205, .T. ) ;
#116 = ORIENTED_EDGE ( 'NONE', *, *, #155, .F. ) ;
#117 = ORIENTED_EDGE ( 'NONE', *, *, #191, .T. ) ;
#118 = APPLICATION_CONTEXT ( 'configuration controlled 3d designs of mechanical parts and assemblies' ) ;
#119 = ORIENTED_EDGE ( 'NONE', *, *, #67, .F. ) ;
#120 = CIRCLE ( 'NONE', #27, 4.200000000000000178 ) ;
#121 = DIRECTION ( 'NONE',  ( 1.000000000000000000, 0.000000000000000000, 0.000000000000000000 ) ) ;
#122 = APPROVAL_ROLE ( '' ) ;
#123 = APPROVAL ( #48, 'UNSPECIFIED' ) ;
#124 = PERSON_AND_ORGANIZATION_ROLE ( 'classification_officer' ) ;
#125 = DIRECTION ( 'NONE',  ( 0.000000000000000000, 0.000000000000000000, -1.000000000000000000 ) ) ;
#126 = PERSON_AND_ORGANIZATION_ROLE ( 'design_owner' ) ;
#127 = CARTESIAN_POINT ( 'NONE',  ( 4.200000000000000178, 5.143516556418882928E-16, 0.000000000000000000 ) ) ;
#128 = CC_DESIGN_PERSON_AND_ORGANIZATION_ASSIGNMENT ( #207, #24, ( #167 ) ) ;
#129 = CARTESIAN_POINT ( 'NONE',  ( 0.000000000000000000, 0.000000000000000000, 10.00000000000000000 ) ) ;
#130 = DIRECTION ( 'NONE',  ( 0.000000000000000000, 0.000000000000000000, 1.000000000000000000 ) ) ;
#131 = APPLICATION_CONTEXT ( 'configuration controlled 3d designs of mechanical parts and assemblies' ) ;
#132 = CARTESIAN_POINT ( 'NONE',  ( -4.200000000000000178, 0.000000000000000000, 0.000000000000000000 ) ) ;
#133 = LOCAL_TIME ( 8, 57, 23.00000000000000000, #148 ) ;
#134 = ADVANCED_FACE ( 'NONE', ( #32, #229 ), #75, .F. ) ;
#135 = DIRECTION ( 'NONE',  ( 1.000000000000000000, 0.000000000000000000, 0.000000000000000000 ) ) ;
#136 = CARTESIAN_POINT ( 'NONE',  ( -17.50000000000000000, 0.000000000000000000, 10.00000000000000000 ) ) ;
#137 = LOCAL_TIME ( 8, 57, 23.00000000000000000, #28 ) ;
#138 = VERTEX_POINT ( 'NONE', #127 ) ;
#139 = ORIENTED_EDGE ( 'NONE', *, *, #35, .F. ) ;
#140 = CIRCLE ( 'NONE', #4, 17.50000000000000000 ) ;
#141 = ORIENTED_EDGE ( 'NONE', *, *, #240, .F. ) ;
#142 = DATE_TIME_ROLE ( 'creation_date' ) ;
#143 = ORIENTED_EDGE ( 'NONE', *, *, #115, .F. ) ;
#144 = DATE_AND_TIME ( #84, #133 ) ;
#145 = CARTESIAN_POINT ( 'NONE',  ( 0.000000000000000000, 0.000000000000000000, 10.00000000000000000 ) ) ;
#146 = PERSON_AND_ORGANIZATION ( #154, #231 ) ;
#147 = AXIS2_PLACEMENT_3D ( 'NONE', #98, #111, #233 ) ;
#148 = COORDINATED_UNIVERSAL_TIME_OFFSET ( 9, 0, .AHEAD. ) ;
#149 = CARTESIAN_POINT ( 'NONE',  ( -4.200000000000000178, 0.000000000000000000, 10.00000000000000000 ) ) ;
#150 = FACE_BOUND ( 'NONE', #100, .T. ) ;
#151 = EDGE_CURVE ( 'NONE', #11, #86, #120, .T. ) ;
#152 = CIRCLE ( 'NONE', #183, 17.50000000000000000 ) ;
#153 = CARTESIAN_POINT ( 'NONE',  ( 17.50000000000000000, 2.143131898507868248E-15, 10.00000000000000000 ) ) ;
#154 = PERSON ( 'UNSPECIFIED', 'UNSPECIFIED', 'UNSPECIFIED', ('UNSPECIFIED'), ('UNSPECIFIED'), ('UNSPECIFIED') ) ;
#155 = EDGE_CURVE ( 'NONE', #239, #85, #140, .T. ) ;
#156 = PERSON_AND_ORGANIZATION_ROLE ( 'creator' ) ;
#157 = EDGE_LOOP ( 'NONE', ( #141, #99, #23, #143 ) ) ;
#158 = PRODUCT ( 'bj623-08004', 'bj623-08004', '', ( #54 ) ) ;
#159 = CYLINDRICAL_SURFACE ( 'NONE', #81, 17.50000000000000000 ) ;
#160 = AXIS2_PLACEMENT_3D ( 'NONE', #249, #1, #195 ) ;
#161 = DIRECTION ( 'NONE',  ( 0.000000000000000000, 0.000000000000000000, 1.000000000000000000 ) ) ;
#162 = PERSON_AND_ORGANIZATION_ROLE ( 'design_supplier' ) ;
#163 = DIRECTION ( 'NONE',  ( 1.000000000000000000, 0.000000000000000000, 0.000000000000000000 ) ) ;
#164 = EDGE_CURVE ( 'NONE', #86, #200, #53, .T. ) ;
#165 = DATE_TIME_ROLE ( 'classification_date' ) ;
#166 = EDGE_LOOP ( 'NONE', ( #241, #29, #222, #102 ) ) ;
#167 = PRODUCT_DEFINITION_FORMATION_WITH_SPECIFIED_SOURCE ( 'ANY', '', #158, .NOT_KNOWN. ) ;
#168 = FACE_OUTER_BOUND ( 'NONE', #208, .T. ) ;
#169 = DIRECTION ( 'NONE',  ( 0.000000000000000000, 0.000000000000000000, 1.000000000000000000 ) ) ;
#170 = CC_DESIGN_PERSON_AND_ORGANIZATION_ASSIGNMENT ( #188, #124, ( #61 ) ) ;
#171 = DIRECTION ( 'NONE',  ( 0.000000000000000000, 0.000000000000000000, 1.000000000000000000 ) ) ;
#172 = DIRECTION ( 'NONE',  ( 1.000000000000000000, 0.000000000000000000, 0.000000000000000000 ) ) ;
#173 = APPROVAL_PERSON_ORGANIZATION ( #177, #123, #33 ) ;
#174 = DIRECTION ( 'NONE',  ( 0.000000000000000000, 0.000000000000000000, 1.000000000000000000 ) ) ;
#175 = VECTOR ( 'NONE', #125, 1000.000000000000000 ) ;
#176 = LINE ( 'NONE', #136, #17 ) ;
#177 = PERSON_AND_ORGANIZATION ( #154, #231 ) ;
#178 = CC_DESIGN_SECURITY_CLASSIFICATION ( #61, ( #167 ) ) ;
#179 = ORIENTED_EDGE ( 'NONE', *, *, #216, .T. ) ;
#180 = ADVANCED_FACE ( 'NONE', ( #168 ), #51, .T. ) ;
#181 = DIRECTION ( 'NONE',  ( 0.000000000000000000, 0.000000000000000000, -1.000000000000000000 ) ) ;
#182 = CARTESIAN_POINT ( 'NONE',  ( 0.000000000000000000, 0.000000000000000000, 10.00000000000000000 ) ) ;
#183 = AXIS2_PLACEMENT_3D ( 'NONE', #145, #224, #121 ) ;
#184 = CIRCLE ( 'NONE', #160, 17.50000000000000000 ) ;
#185 = SECURITY_CLASSIFICATION_LEVEL ( 'unclassified' ) ;
#186 = ORIENTED_EDGE ( 'NONE', *, *, #19, .T. ) ;
#187 = ADVANCED_FACE ( 'NONE', ( #247, #150 ), #55, .T. ) ;
#188 = PERSON_AND_ORGANIZATION ( #154, #231 ) ;
#189 = APPLICATION_PROTOCOL_DEFINITION ( 'international standard', 'config_control_design', 1994, #118 ) ;
#190 = DIRECTION ( 'NONE',  ( -1.000000000000000000, 0.000000000000000000, 0.000000000000000000 ) ) ;
#191 = EDGE_CURVE ( 'NONE', #7, #85, #176, .T. ) ;
#192 = CARTESIAN_POINT ( 'NONE',  ( -4.200000000000000178, 0.000000000000000000, 10.00000000000000000 ) ) ;
#193 = DIRECTION ( 'NONE',  ( -1.000000000000000000, 0.000000000000000000, 0.000000000000000000 ) ) ;
#194 = DIRECTION ( 'NONE',  ( 0.000000000000000000, 0.000000000000000000, 1.000000000000000000 ) ) ;
#195 = DIRECTION ( 'NONE',  ( 1.000000000000000000, 0.000000000000000000, 0.000000000000000000 ) ) ;
#196 = APPROVAL ( #50, 'UNSPECIFIED' ) ;
#197 = CC_DESIGN_APPROVAL ( #196, ( #61 ) ) ;
#198 = AXIS2_PLACEMENT_3D ( 'NONE', #106, #212, #190 ) ;
#199 = CARTESIAN_POINT ( 'NONE',  ( 4.200000000000000178, 5.143516556418882928E-16, 10.00000000000000000 ) ) ;
#200 = VERTEX_POINT ( 'NONE', #132 ) ;
#201 = LINE ( 'NONE', #104, #230 ) ;
#202 = FACE_OUTER_BOUND ( 'NONE', #45, .T. ) ;
#203 = DATE_AND_TIME ( #227, #63 ) ;
#204 = CARTESIAN_POINT ( 'NONE',  ( 4.200000000000000178, 5.143516556418882928E-16, 10.00000000000000000 ) ) ;
#205 = CIRCLE ( 'NONE', #97, 4.200000000000000178 ) ;
#206 = VECTOR ( 'NONE', #60, 1000.000000000000000 ) ;
#207 = PERSON_AND_ORGANIZATION ( #154, #231 ) ;
#208 = EDGE_LOOP ( 'NONE', ( #20, #139, #117, #220 ) ) ;
#209 = COORDINATED_UNIVERSAL_TIME_OFFSET ( 9, 0, .AHEAD. ) ;
#210 = CYLINDRICAL_SURFACE ( 'NONE', #112, 4.200000000000000178 ) ;
#211 = PERSON_AND_ORGANIZATION ( #154, #231 ) ;
#212 = DIRECTION ( 'NONE',  ( 0.000000000000000000, 0.000000000000000000, -1.000000000000000000 ) ) ;
#213 = DIRECTION ( 'NONE',  ( -1.000000000000000000, 0.000000000000000000, 0.000000000000000000 ) ) ;
#214 = PRODUCT_DEFINITION ( 'UNKNOWN', '', #167, #38 ) ;
#215 = LOCAL_TIME ( 8, 57, 23.00000000000000000, #209 ) ;
#216 = EDGE_CURVE ( 'NONE', #218, #7, #184, .T. ) ;
#217 = AXIS2_PLACEMENT_3D ( 'NONE', #36, #130, #71 ) ;
#218 = VERTEX_POINT ( 'NONE', #153 ) ;
#219 = ORIENTED_EDGE ( 'NONE', *, *, #30, .T. ) ;
#220 = ORIENTED_EDGE ( 'NONE', *, *, #67, .T. ) ;
#221 = COORDINATED_UNIVERSAL_TIME_OFFSET ( 9, 0, .AHEAD. ) ;
#222 = ORIENTED_EDGE ( 'NONE', *, *, #30, .F. ) ;
#223 = PERSON_AND_ORGANIZATION ( #154, #231 ) ;
#224 = DIRECTION ( 'NONE',  ( 0.000000000000000000, 0.000000000000000000, 1.000000000000000000 ) ) ;
#225 = DATE_AND_TIME ( #103, #56 ) ;
#226 = DIRECTION ( 'NONE',  ( 0.000000000000000000, 0.000000000000000000, -1.000000000000000000 ) ) ;
#227 = CALENDAR_DATE ( 2021, 25, 10 ) ;
#228 =( NAMED_UNIT ( * ) SI_UNIT ( $, .STERADIAN. ) SOLID_ANGLE_UNIT ( ) );
#229 = FACE_BOUND ( 'NONE', #244, .T. ) ;
#230 = VECTOR ( 'NONE', #181, 1000.000000000000000 ) ;
#231 = ORGANIZATION ( 'UNSPECIFIED', 'UNSPECIFIED', '' ) ;
#232 = DIRECTION ( 'NONE',  ( 1.000000000000000000, 0.000000000000000000, 0.000000000000000000 ) ) ;
#233 = DIRECTION ( 'NONE',  ( 1.000000000000000000, 0.000000000000000000, 0.000000000000000000 ) ) ;
#234 = UNCERTAINTY_MEASURE_WITH_UNIT (LENGTH_MEASURE( 1.000000000000000082E-05 ), #2, 'distance_accuracy_value', 'NONE');
#235 = ADVANCED_BREP_SHAPE_REPRESENTATION ( 'bj623-08004', ( #15, #245 ), #9 ) ;
#236 = APPROVAL ( #107, 'UNSPECIFIED' ) ;
#237 = CC_DESIGN_PERSON_AND_ORGANIZATION_ASSIGNMENT ( #246, #126, ( #158 ) ) ;
#238 = COORDINATED_UNIVERSAL_TIME_OFFSET ( 9, 0, .AHEAD. ) ;
#239 = VERTEX_POINT ( 'NONE', #40 ) ;
#240 = EDGE_CURVE ( 'NONE', #11, #138, #43, .T. ) ;
#241 = ORIENTED_EDGE ( 'NONE', *, *, #76, .T. ) ;
#242 = EDGE_LOOP ( 'NONE', ( #5, #179 ) ) ;
#243 = DIRECTION ( 'NONE',  ( 1.000000000000000000, 0.000000000000000000, 0.000000000000000000 ) ) ;
#244 = EDGE_LOOP ( 'NONE', ( #219, #64 ) ) ;
#245 = AXIS2_PLACEMENT_3D ( 'NONE', #65, #169, #243 ) ;
#246 = PERSON_AND_ORGANIZATION ( #154, #231 ) ;
#247 = FACE_OUTER_BOUND ( 'NONE', #242, .T. ) ;
#248 = AXIS2_PLACEMENT_3D ( 'NONE', #129, #77, #213 ) ;
#249 = CARTESIAN_POINT ( 'NONE',  ( 0.000000000000000000, 0.000000000000000000, 10.00000000000000000 ) ) ;
ENDSEC;
END-ISO-10303-21;
