ISO-10303-21;
HEADER;
FILE_DESCRIPTION (( 'STEP AP203' ),
    '1' );
FILE_NAME ('bj300-16100.STEP',
    '2021-10-24T23:51:44',
    ( '' ),
    ( '' ),
    'SwSTEP 2.0',
    'SolidWorks 2020',
    '' );
FILE_SCHEMA (( 'CONFIG_CONTROL_DESIGN' ));
ENDSEC;

DATA;
#1 = APPROVAL_PERSON_ORGANIZATION ( #304, #261, #110 ) ;
#2 = FACE_OUTER_BOUND ( 'NONE', #231, .T. ) ;
#3 = CC_DESIGN_PERSON_AND_ORGANIZATION_ASSIGNMENT ( #54, #178, ( #233 ) ) ;
#4 = CALENDAR_DATE ( 2021, 25, 10 ) ;
#5 = CARTESIAN_POINT ( 'NONE',  ( 9.000000000000000000, 0.000000000000000000, 35.00000000000000000 ) ) ;
#6 = DIRECTION ( 'NONE',  ( 1.000000000000000000, 0.000000000000000000, 0.000000000000000000 ) ) ;
#7 = PERSON_AND_ORGANIZATION ( #107, #325 ) ;
#8 = DIRECTION ( 'NONE',  ( 0.000000000000000000, 0.000000000000000000, 1.000000000000000000 ) ) ;
#9 = ORIENTED_EDGE ( 'NONE', *, *, #328, .F. ) ;
#10 = DIRECTION ( 'NONE',  ( 0.000000000000000000, 0.000000000000000000, 1.000000000000000000 ) ) ;
#11 = ORIENTED_EDGE ( 'NONE', *, *, #88, .T. ) ;
#12 = DIRECTION ( 'NONE',  ( 1.000000000000000000, 0.000000000000000000, 0.000000000000000000 ) ) ;
#13 = ORIENTED_EDGE ( 'NONE', *, *, #179, .F. ) ;
#14 = FACE_OUTER_BOUND ( 'NONE', #27, .T. ) ;
#15 = ORIENTED_EDGE ( 'NONE', *, *, #20, .F. ) ;
#16 = DIRECTION ( 'NONE',  ( 1.000000000000000000, 0.000000000000000000, 0.000000000000000000 ) ) ;
#17 = AXIS2_PLACEMENT_3D ( 'NONE', #275, #169, #45 ) ;
#18 = AXIS2_PLACEMENT_3D ( 'NONE', #297, #296, #156 ) ;
#19 = DIRECTION ( 'NONE',  ( 0.000000000000000000, 0.000000000000000000, 1.000000000000000000 ) ) ;
#20 = EDGE_CURVE ( 'NONE', #255, #265, #101, .T. ) ;
#21 = ADVANCED_BREP_SHAPE_REPRESENTATION ( 'bj300-16100', ( #263, #18 ), #139 ) ;
#22 = CLOSED_SHELL ( 'NONE', ( #162, #214, #299, #217, #323, #93, #147, #57, #245 ) ) ;
#23 = APPROVAL_STATUS ( 'not_yet_approved' ) ;
#24 = CARTESIAN_POINT ( 'NONE',  ( 0.000000000000000000, 0.000000000000000000, 100.0000000000000000 ) ) ;
#25 = AXIS2_PLACEMENT_3D ( 'NONE', #56, #8, #12 ) ;
#26 = APPROVAL_PERSON_ORGANIZATION ( #326, #183, #130 ) ;
#27 = EDGE_LOOP ( 'NONE', ( #90, #132 ) ) ;
#28 = ORIENTED_EDGE ( 'NONE', *, *, #224, .F. ) ;
#29 = PERSON_AND_ORGANIZATION_ROLE ( 'design_owner' ) ;
#30 = CARTESIAN_POINT ( 'NONE',  ( -25.00000000000000000, 3.061616997868383043E-15, 0.000000000000000000 ) ) ;
#31 = APPROVAL_DATE_TIME ( #238, #160 ) ;
#32 = ORIENTED_EDGE ( 'NONE', *, *, #64, .T. ) ;
#33 = CIRCLE ( 'NONE', #81, 9.000000000000000000 ) ;
#34 = CARTESIAN_POINT ( 'NONE',  ( -13.00000000000000000, 1.592040838891559095E-15, 35.00000000000000000 ) ) ;
#35 = DATE_AND_TIME ( #243, #59 ) ;
#36 = PERSON_AND_ORGANIZATION_ROLE ( 'design_supplier' ) ;
#37 = AXIS2_PLACEMENT_3D ( 'NONE', #176, #195, #314 ) ;
#38 = DATE_AND_TIME ( #58, #86 ) ;
#39 = ORIENTED_EDGE ( 'NONE', *, *, #111, .F. ) ;
#40 = ORIENTED_EDGE ( 'NONE', *, *, #46, .F. ) ;
#41 = DIRECTION ( 'NONE',  ( 0.000000000000000000, 0.000000000000000000, 1.000000000000000000 ) ) ;
#42 = CC_DESIGN_PERSON_AND_ORGANIZATION_ASSIGNMENT ( #258, #36, ( #306 ) ) ;
#43 = VECTOR ( 'NONE', #280, 1000.000000000000000 ) ;
#44 = VERTEX_POINT ( 'NONE', #50 ) ;
#45 = DIRECTION ( 'NONE',  ( -1.000000000000000000, 0.000000000000000000, 0.000000000000000000 ) ) ;
#46 = EDGE_CURVE ( 'NONE', #135, #44, #234, .T. ) ;
#47 = CARTESIAN_POINT ( 'NONE',  ( 0.000000000000000000, 0.000000000000000000, 40.00000000000000000 ) ) ;
#48 = DIRECTION ( 'NONE',  ( 0.000000000000000000, 0.000000000000000000, 1.000000000000000000 ) ) ;
#49 = DIRECTION ( 'NONE',  ( 0.000000000000000000, 0.000000000000000000, 1.000000000000000000 ) ) ;
#50 = CARTESIAN_POINT ( 'NONE',  ( -9.000000000000000000, 1.102182119232617714E-15, 35.00000000000000000 ) ) ;
#51 = DIRECTION ( 'NONE',  ( 0.000000000000000000, 0.000000000000000000, 1.000000000000000000 ) ) ;
#52 = ORIENTED_EDGE ( 'NONE', *, *, #175, .F. ) ;
#53 = CIRCLE ( 'NONE', #242, 9.000000000000000000 ) ;
#54 = PERSON_AND_ORGANIZATION ( #107, #325 ) ;
#55 = DIRECTION ( 'NONE',  ( 0.000000000000000000, 0.000000000000000000, 1.000000000000000000 ) ) ;
#56 = CARTESIAN_POINT ( 'NONE',  ( 0.000000000000000000, 0.000000000000000000, 100.0000000000000000 ) ) ;
#57 = ADVANCED_FACE ( 'NONE', ( #300, #2 ), #202, .F. ) ;
#58 = CALENDAR_DATE ( 2021, 25, 10 ) ;
#59 = LOCAL_TIME ( 8, 51, 44.00000000000000000, #141 ) ;
#60 = VERTEX_POINT ( 'NONE', #30 ) ;
#61 = APPROVAL_ROLE ( '' ) ;
#62 = FACE_OUTER_BOUND ( 'NONE', #311, .T. ) ;
#63 = EDGE_LOOP ( 'NONE', ( #218, #78 ) ) ;
#64 = EDGE_CURVE ( 'NONE', #143, #265, #235, .T. ) ;
#65 = CARTESIAN_POINT ( 'NONE',  ( 0.000000000000000000, 0.000000000000000000, 40.00000000000000000 ) ) ;
#66 = DIRECTION ( 'NONE',  ( 1.000000000000000000, 0.000000000000000000, 0.000000000000000000 ) ) ;
#67 = AXIS2_PLACEMENT_3D ( 'NONE', #65, #198, #223 ) ;
#68 = ORIENTED_EDGE ( 'NONE', *, *, #253, .F. ) ;
#69 = VECTOR ( 'NONE', #203, 1000.000000000000000 ) ;
#70 = CARTESIAN_POINT ( 'NONE',  ( -13.00000000000000000, 1.592040838891559095E-15, 100.0000000000000000 ) ) ;
#71 = VECTOR ( 'NONE', #199, 1000.000000000000000 ) ;
#72 = EDGE_LOOP ( 'NONE', ( #39, #164, #197, #329 ) ) ;
#73 = DATE_AND_TIME ( #324, #228 ) ;
#74 = APPROVAL_DATE_TIME ( #73, #183 ) ;
#75 = APPROVAL_STATUS ( 'not_yet_approved' ) ;
#76 = CC_DESIGN_APPROVAL ( #183, ( #233 ) ) ;
#77 = CARTESIAN_POINT ( 'NONE',  ( 25.00000000000000000, 0.000000000000000000, 100.0000000000000000 ) ) ;
#78 = ORIENTED_EDGE ( 'NONE', *, *, #118, .F. ) ;
#79 = DIRECTION ( 'NONE',  ( 1.000000000000000000, 0.000000000000000000, 0.000000000000000000 ) ) ;
#80 = CC_DESIGN_SECURITY_CLASSIFICATION ( #221, ( #306 ) ) ;
#81 = AXIS2_PLACEMENT_3D ( 'NONE', #244, #55, #79 ) ;
#82 = CARTESIAN_POINT ( 'NONE',  ( 9.000000000000000000, 0.000000000000000000, 40.00000000000000000 ) ) ;
#83 = PRODUCT_RELATED_PRODUCT_CATEGORY ( 'detail', '', ( #140 ) ) ;
#84 = COORDINATED_UNIVERSAL_TIME_OFFSET ( 9, 0, .AHEAD. ) ;
#85 = PLANE ( 'NONE',  #151 ) ;
#86 = LOCAL_TIME ( 8, 51, 44.00000000000000000, #84 ) ;
#87 = EDGE_LOOP ( 'NONE', ( #125, #119, #319, #249 ) ) ;
#88 = EDGE_CURVE ( 'NONE', #309, #135, #33, .T. ) ;
#89 = FACE_OUTER_BOUND ( 'NONE', #106, .T. ) ;
#90 = ORIENTED_EDGE ( 'NONE', *, *, #308, .T. ) ;
#91 = CYLINDRICAL_SURFACE ( 'NONE', #264, 13.00000000000000000 ) ;
#92 = DIRECTION ( 'NONE',  ( 0.000000000000000000, 0.000000000000000000, 1.000000000000000000 ) ) ;
#93 = ADVANCED_FACE ( 'NONE', ( #114, #283 ), #85, .F. ) ;
#94 = EDGE_LOOP ( 'NONE', ( #291, #293, #68, #15 ) ) ;
#95 = FACE_OUTER_BOUND ( 'NONE', #87, .T. ) ;
#96 = CARTESIAN_POINT ( 'NONE',  ( 0.000000000000000000, 0.000000000000000000, 35.00000000000000000 ) ) ;
#97 =( LENGTH_UNIT ( ) NAMED_UNIT ( * ) SI_UNIT ( .MILLI., .METRE. ) );
#98 = EDGE_CURVE ( 'NONE', #201, #44, #192, .T. ) ;
#99 = PRODUCT_DEFINITION_SHAPE ( 'NONE', 'NONE',  #233 ) ;
#100 = DIRECTION ( 'NONE',  ( 1.000000000000000000, 0.000000000000000000, 0.000000000000000000 ) ) ;
#101 = LINE ( 'NONE', #154, #43 ) ;
#102 = AXIS2_PLACEMENT_3D ( 'NONE', #24, #49, #153 ) ;
#103 = DIRECTION ( 'NONE',  ( 1.000000000000000000, 0.000000000000000000, 0.000000000000000000 ) ) ;
#104 = PERSON_AND_ORGANIZATION ( #107, #325 ) ;
#105 = CARTESIAN_POINT ( 'NONE',  ( -9.000000000000000000, 1.102182119232617714E-15, 40.00000000000000000 ) ) ;
#106 = EDGE_LOOP ( 'NONE', ( #188, #315, #257, #193 ) ) ;
#107 = PERSON ( 'UNSPECIFIED', 'UNSPECIFIED', 'UNSPECIFIED', ('UNSPECIFIED'), ('UNSPECIFIED'), ('UNSPECIFIED') ) ;
#108 = PERSON_AND_ORGANIZATION_ROLE ( 'classification_officer' ) ;
#109 = DIRECTION ( 'NONE',  ( 0.000000000000000000, 0.000000000000000000, -1.000000000000000000 ) ) ;
#110 = APPROVAL_ROLE ( '' ) ;
#111 = EDGE_CURVE ( 'NONE', #60, #143, #138, .T. ) ;
#112 = DIRECTION ( 'NONE',  ( 1.000000000000000000, 0.000000000000000000, 0.000000000000000000 ) ) ;
#113 = VECTOR ( 'NONE', #307, 1000.000000000000000 ) ;
#114 = FACE_OUTER_BOUND ( 'NONE', #278, .T. ) ;
#115 = ORIENTED_EDGE ( 'NONE', *, *, #227, .F. ) ;
#116 = PERSON_AND_ORGANIZATION ( #107, #325 ) ;
#117 = CARTESIAN_POINT ( 'NONE',  ( 9.000000000000000000, 0.000000000000000000, 0.000000000000000000 ) ) ;
#118 = EDGE_CURVE ( 'NONE', #44, #201, #53, .T. ) ;
#119 = ORIENTED_EDGE ( 'NONE', *, *, #308, .F. ) ;
#120 = CYLINDRICAL_SURFACE ( 'NONE', #313, 9.000000000000000000 ) ;
#121 = AXIS2_PLACEMENT_3D ( 'NONE', #185, #159, #285 ) ;
#122 = EDGE_LOOP ( 'NONE', ( #11, #225 ) ) ;
#123 = DIRECTION ( 'NONE',  ( 0.000000000000000000, 0.000000000000000000, 1.000000000000000000 ) ) ;
#124 = CARTESIAN_POINT ( 'NONE',  ( 13.00000000000000000, 0.000000000000000000, 100.0000000000000000 ) ) ;
#125 = ORIENTED_EDGE ( 'NONE', *, *, #207, .F. ) ;
#126 = CARTESIAN_POINT ( 'NONE',  ( 25.00000000000000000, 0.000000000000000000, 0.000000000000000000 ) ) ;
#127 = LOCAL_TIME ( 8, 51, 44.00000000000000000, #254 ) ;
#128 = DIRECTION ( 'NONE',  ( 1.000000000000000000, 0.000000000000000000, 0.000000000000000000 ) ) ;
#129 = CC_DESIGN_DATE_AND_TIME_ASSIGNMENT ( #236, #327, ( #233 ) ) ;
#130 = APPROVAL_ROLE ( '' ) ;
#131 = AXIS2_PLACEMENT_3D ( 'NONE', #96, #48, #149 ) ;
#132 = ORIENTED_EDGE ( 'NONE', *, *, #224, .T. ) ;
#133 = CALENDAR_DATE ( 2021, 25, 10 ) ;
#134 =( NAMED_UNIT ( * ) SI_UNIT ( $, .STERADIAN. ) SOLID_ANGLE_UNIT ( ) );
#135 = VERTEX_POINT ( 'NONE', #187 ) ;
#136 = LINE ( 'NONE', #303, #312 ) ;
#137 = SECURITY_CLASSIFICATION_LEVEL ( 'unclassified' ) ;
#138 = LINE ( 'NONE', #163, #113 ) ;
#139 =( GEOMETRIC_REPRESENTATION_CONTEXT ( 3 ) GLOBAL_UNCERTAINTY_ASSIGNED_CONTEXT ( ( #212 ) ) GLOBAL_UNIT_ASSIGNED_CONTEXT ( ( #97, #279, #134 ) ) REPRESENTATION_CONTEXT ( 'NONE', 'WORKASPACE' ) );
#140 = PRODUCT ( 'bj300-16100', 'bj300-16100', '', ( #177 ) ) ;
#141 = COORDINATED_UNIVERSAL_TIME_OFFSET ( 9, 0, .AHEAD. ) ;
#142 = CC_DESIGN_PERSON_AND_ORGANIZATION_ASSIGNMENT ( #116, #262, ( #306 ) ) ;
#143 = VERTEX_POINT ( 'NONE', #213 ) ;
#144 = CARTESIAN_POINT ( 'NONE',  ( 0.000000000000000000, 0.000000000000000000, 40.00000000000000000 ) ) ;
#145 = CIRCLE ( 'NONE', #272, 25.00000000000000000 ) ;
#146 = CARTESIAN_POINT ( 'NONE',  ( -13.00000000000000000, 1.592040838891559095E-15, 40.00000000000000000 ) ) ;
#147 = ADVANCED_FACE ( 'NONE', ( #286 ), #310, .T. ) ;
#148 = CIRCLE ( 'NONE', #166, 25.00000000000000000 ) ;
#149 = DIRECTION ( 'NONE',  ( 1.000000000000000000, 0.000000000000000000, 0.000000000000000000 ) ) ;
#150 = EDGE_CURVE ( 'NONE', #309, #201, #287, .T. ) ;
#151 = AXIS2_PLACEMENT_3D ( 'NONE', #117, #266, #305 ) ;
#152 = APPLICATION_PROTOCOL_DEFINITION ( 'international standard', 'config_control_design', 1994, #229 ) ;
#153 = DIRECTION ( 'NONE',  ( 1.000000000000000000, 0.000000000000000000, 0.000000000000000000 ) ) ;
#154 = CARTESIAN_POINT ( 'NONE',  ( 25.00000000000000000, 0.000000000000000000, 40.00000000000000000 ) ) ;
#155 = AXIS2_PLACEMENT_3D ( 'NONE', #209, #190, #112 ) ;
#156 = DIRECTION ( 'NONE',  ( 1.000000000000000000, 0.000000000000000000, 0.000000000000000000 ) ) ;
#157 = DIRECTION ( 'NONE',  ( -1.000000000000000000, 0.000000000000000000, 0.000000000000000000 ) ) ;
#158 = VERTEX_POINT ( 'NONE', #34 ) ;
#159 = DIRECTION ( 'NONE',  ( 0.000000000000000000, 0.000000000000000000, 1.000000000000000000 ) ) ;
#160 = APPROVAL ( #75, 'UNSPECIFIED' ) ;
#161 = DIRECTION ( 'NONE',  ( 0.000000000000000000, 0.000000000000000000, 1.000000000000000000 ) ) ;
#162 = ADVANCED_FACE ( 'NONE', ( #62 ), #241, .F. ) ;
#163 = CARTESIAN_POINT ( 'NONE',  ( -25.00000000000000000, 3.061616997868383043E-15, 40.00000000000000000 ) ) ;
#164 = ORIENTED_EDGE ( 'NONE', *, *, #237, .T. ) ;
#165 = CARTESIAN_POINT ( 'NONE',  ( 0.000000000000000000, 0.000000000000000000, 35.00000000000000000 ) ) ;
#166 = AXIS2_PLACEMENT_3D ( 'NONE', #251, #41, #220 ) ;
#167 = EDGE_LOOP ( 'NONE', ( #115, #52 ) ) ;
#168 = ORIENTED_EDGE ( 'NONE', *, *, #253, .T. ) ;
#169 = DIRECTION ( 'NONE',  ( 0.000000000000000000, 0.000000000000000000, -1.000000000000000000 ) ) ;
#170 = CARTESIAN_POINT ( 'NONE',  ( 0.000000000000000000, 0.000000000000000000, 0.000000000000000000 ) ) ;
#171 = CIRCLE ( 'NONE', #131, 13.00000000000000000 ) ;
#172 = ORIENTED_EDGE ( 'NONE', *, *, #98, .T. ) ;
#173 = DIRECTION ( 'NONE',  ( 1.000000000000000000, 0.000000000000000000, 0.000000000000000000 ) ) ;
#174 = CYLINDRICAL_SURFACE ( 'NONE', #301, 9.000000000000000000 ) ;
#175 = EDGE_CURVE ( 'NONE', #289, #246, #270, .T. ) ;
#176 = CARTESIAN_POINT ( 'NONE',  ( 0.000000000000000000, 0.000000000000000000, 100.0000000000000000 ) ) ;
#177 = MECHANICAL_CONTEXT ( 'NONE', #229, 'mechanical' ) ;
#178 = PERSON_AND_ORGANIZATION_ROLE ( 'creator' ) ;
#179 = EDGE_CURVE ( 'NONE', #273, #246, #136, .T. ) ;
#180 = CIRCLE ( 'NONE', #37, 13.00000000000000000 ) ;
#181 = PERSON_AND_ORGANIZATION ( #107, #325 ) ;
#182 = DIRECTION ( 'NONE',  ( 0.000000000000000000, 0.000000000000000000, 1.000000000000000000 ) ) ;
#183 = APPROVAL ( #23, 'UNSPECIFIED' ) ;
#184 = AXIS2_PLACEMENT_3D ( 'NONE', #226, #290, #16 ) ;
#185 = CARTESIAN_POINT ( 'NONE',  ( 0.000000000000000000, 0.000000000000000000, 40.00000000000000000 ) ) ;
#186 = COORDINATED_UNIVERSAL_TIME_OFFSET ( 9, 0, .AHEAD. ) ;
#187 = CARTESIAN_POINT ( 'NONE',  ( -9.000000000000000000, 1.102182119232617714E-15, 0.000000000000000000 ) ) ;
#188 = ORIENTED_EDGE ( 'NONE', *, *, #284, .F. ) ;
#189 = DESIGN_CONTEXT ( 'detailed design', #269, 'design' ) ;
#190 = DIRECTION ( 'NONE',  ( 0.000000000000000000, 0.000000000000000000, 1.000000000000000000 ) ) ;
#191 = ORIENTED_EDGE ( 'NONE', *, *, #175, .T. ) ;
#192 = CIRCLE ( 'NONE', #260, 9.000000000000000000 ) ;
#193 = ORIENTED_EDGE ( 'NONE', *, *, #150, .F. ) ;
#194 = CC_DESIGN_PERSON_AND_ORGANIZATION_ASSIGNMENT ( #7, #108, ( #221 ) ) ;
#195 = DIRECTION ( 'NONE',  ( 0.000000000000000000, 0.000000000000000000, 1.000000000000000000 ) ) ;
#196 = CARTESIAN_POINT ( 'NONE',  ( 0.000000000000000000, 0.000000000000000000, 35.00000000000000000 ) ) ;
#197 = ORIENTED_EDGE ( 'NONE', *, *, #20, .T. ) ;
#198 = DIRECTION ( 'NONE',  ( 0.000000000000000000, 0.000000000000000000, 1.000000000000000000 ) ) ;
#199 = DIRECTION ( 'NONE',  ( 0.000000000000000000, 0.000000000000000000, 1.000000000000000000 ) ) ;
#200 = AXIS2_PLACEMENT_3D ( 'NONE', #196, #92, #66 ) ;
#201 = VERTEX_POINT ( 'NONE', #5 ) ;
#202 = PLANE ( 'NONE',  #206 ) ;
#203 = DIRECTION ( 'NONE',  ( 0.000000000000000000, 0.000000000000000000, 1.000000000000000000 ) ) ;
#204 = CIRCLE ( 'NONE', #219, 25.00000000000000000 ) ;
#205 = LOCAL_TIME ( 8, 51, 44.00000000000000000, #186 ) ;
#206 = AXIS2_PLACEMENT_3D ( 'NONE', #77, #109, #157 ) ;
#207 = EDGE_CURVE ( 'NONE', #158, #289, #210, .T. ) ;
#208 = DATE_TIME_ROLE ( 'classification_date' ) ;
#209 = CARTESIAN_POINT ( 'NONE',  ( 0.000000000000000000, 0.000000000000000000, 40.00000000000000000 ) ) ;
#210 = LINE ( 'NONE', #146, #71 ) ;
#211 = CC_DESIGN_APPROVAL ( #261, ( #221 ) ) ;
#212 = UNCERTAINTY_MEASURE_WITH_UNIT (LENGTH_MEASURE( 1.000000000000000082E-05 ), #97, 'distance_accuracy_value', 'NONE');
#213 = CARTESIAN_POINT ( 'NONE',  ( -25.00000000000000000, 3.061616997868383043E-15, 100.0000000000000000 ) ) ;
#214 = ADVANCED_FACE ( 'NONE', ( #248 ), #316, .T. ) ;
#215 = APPROVAL_DATE_TIME ( #35, #261 ) ;
#216 = DIRECTION ( 'NONE',  ( 1.000000000000000000, 0.000000000000000000, 0.000000000000000000 ) ) ;
#217 = ADVANCED_FACE ( 'NONE', ( #322, #14 ), #294, .F. ) ;
#218 = ORIENTED_EDGE ( 'NONE', *, *, #98, .F. ) ;
#219 = AXIS2_PLACEMENT_3D ( 'NONE', #170, #123, #271 ) ;
#220 = DIRECTION ( 'NONE',  ( 1.000000000000000000, 0.000000000000000000, 0.000000000000000000 ) ) ;
#221 = SECURITY_CLASSIFICATION ( '', '', #137 ) ;
#222 = ORIENTED_EDGE ( 'NONE', *, *, #88, .F. ) ;
#223 = DIRECTION ( 'NONE',  ( 1.000000000000000000, 0.000000000000000000, 0.000000000000000000 ) ) ;
#224 = EDGE_CURVE ( 'NONE', #158, #273, #320, .T. ) ;
#225 = ORIENTED_EDGE ( 'NONE', *, *, #284, .T. ) ;
#226 = CARTESIAN_POINT ( 'NONE',  ( 0.000000000000000000, 0.000000000000000000, 0.000000000000000000 ) ) ;
#227 = EDGE_CURVE ( 'NONE', #246, #289, #180, .T. ) ;
#228 = LOCAL_TIME ( 8, 51, 44.00000000000000000, #230 ) ;
#229 = APPLICATION_CONTEXT ( 'configuration controlled 3d designs of mechanical parts and assemblies' ) ;
#230 = COORDINATED_UNIVERSAL_TIME_OFFSET ( 9, 0, .AHEAD. ) ;
#231 = EDGE_LOOP ( 'NONE', ( #168, #32 ) ) ;
#232 = APPROVAL_PERSON_ORGANIZATION ( #104, #160, #61 ) ;
#233 = PRODUCT_DEFINITION ( 'UNKNOWN', '', #306, #189 ) ;
#234 = LINE ( 'NONE', #105, #69 ) ;
#235 = CIRCLE ( 'NONE', #102, 25.00000000000000000 ) ;
#236 = DATE_AND_TIME ( #133, #127 ) ;
#237 = EDGE_CURVE ( 'NONE', #60, #255, #204, .T. ) ;
#238 = DATE_AND_TIME ( #4, #205 ) ;
#239 = APPROVAL_STATUS ( 'not_yet_approved' ) ;
#240 = DIRECTION ( 'NONE',  ( 0.000000000000000000, 0.000000000000000000, 1.000000000000000000 ) ) ;
#241 = CYLINDRICAL_SURFACE ( 'NONE', #121, 13.00000000000000000 ) ;
#242 = AXIS2_PLACEMENT_3D ( 'NONE', #165, #10, #216 ) ;
#243 = CALENDAR_DATE ( 2021, 25, 10 ) ;
#244 = CARTESIAN_POINT ( 'NONE',  ( 0.000000000000000000, 0.000000000000000000, 0.000000000000000000 ) ) ;
#245 = ADVANCED_FACE ( 'NONE', ( #95 ), #91, .F. ) ;
#246 = VERTEX_POINT ( 'NONE', #124 ) ;
#247 = CARTESIAN_POINT ( 'NONE',  ( 25.00000000000000000, 0.000000000000000000, 100.0000000000000000 ) ) ;
#248 = FACE_OUTER_BOUND ( 'NONE', #94, .T. ) ;
#249 = ORIENTED_EDGE ( 'NONE', *, *, #227, .T. ) ;
#250 = DIRECTION ( 'NONE',  ( 0.000000000000000000, 0.000000000000000000, 1.000000000000000000 ) ) ;
#251 = CARTESIAN_POINT ( 'NONE',  ( 0.000000000000000000, 0.000000000000000000, 100.0000000000000000 ) ) ;
#252 = CARTESIAN_POINT ( 'NONE',  ( 9.000000000000000000, 0.000000000000000000, 0.000000000000000000 ) ) ;
#253 = EDGE_CURVE ( 'NONE', #265, #143, #148, .T. ) ;
#254 = COORDINATED_UNIVERSAL_TIME_OFFSET ( 9, 0, .AHEAD. ) ;
#255 = VERTEX_POINT ( 'NONE', #126 ) ;
#256 = ORIENTED_EDGE ( 'NONE', *, *, #207, .T. ) ;
#257 = ORIENTED_EDGE ( 'NONE', *, *, #118, .T. ) ;
#258 = PERSON_AND_ORGANIZATION ( #107, #325 ) ;
#259 = DIRECTION ( 'NONE',  ( 0.000000000000000000, 0.000000000000000000, 1.000000000000000000 ) ) ;
#260 = AXIS2_PLACEMENT_3D ( 'NONE', #282, #161, #6 ) ;
#261 = APPROVAL ( #239, 'UNSPECIFIED' ) ;
#262 = PERSON_AND_ORGANIZATION_ROLE ( 'creator' ) ;
#263 = MANIFOLD_SOLID_BREP ( 'Imported1', #22 ) ;
#264 = AXIS2_PLACEMENT_3D ( 'NONE', #274, #250, #173 ) ;
#265 = VERTEX_POINT ( 'NONE', #247 ) ;
#266 = DIRECTION ( 'NONE',  ( 0.000000000000000000, 0.000000000000000000, 1.000000000000000000 ) ) ;
#267 = ORIENTED_EDGE ( 'NONE', *, *, #150, .T. ) ;
#268 = FACE_OUTER_BOUND ( 'NONE', #298, .T. ) ;
#269 = APPLICATION_CONTEXT ( 'configuration controlled 3d designs of mechanical parts and assemblies' ) ;
#270 = CIRCLE ( 'NONE', #25, 13.00000000000000000 ) ;
#271 = DIRECTION ( 'NONE',  ( 1.000000000000000000, 0.000000000000000000, 0.000000000000000000 ) ) ;
#272 = AXIS2_PLACEMENT_3D ( 'NONE', #281, #51, #103 ) ;
#273 = VERTEX_POINT ( 'NONE', #318 ) ;
#274 = CARTESIAN_POINT ( 'NONE',  ( 0.000000000000000000, 0.000000000000000000, 40.00000000000000000 ) ) ;
#275 = CARTESIAN_POINT ( 'NONE',  ( 13.00000000000000000, 0.000000000000000000, 35.00000000000000000 ) ) ;
#276 = CIRCLE ( 'NONE', #184, 9.000000000000000000 ) ;
#277 = APPLICATION_PROTOCOL_DEFINITION ( 'international standard', 'config_control_design', 1994, #269 ) ;
#278 = EDGE_LOOP ( 'NONE', ( #9, #288 ) ) ;
#279 =( NAMED_UNIT ( * ) PLANE_ANGLE_UNIT ( ) SI_UNIT ( $, .RADIAN. ) );
#280 = DIRECTION ( 'NONE',  ( 0.000000000000000000, 0.000000000000000000, 1.000000000000000000 ) ) ;
#281 = CARTESIAN_POINT ( 'NONE',  ( 0.000000000000000000, 0.000000000000000000, 0.000000000000000000 ) ) ;
#282 = CARTESIAN_POINT ( 'NONE',  ( 0.000000000000000000, 0.000000000000000000, 35.00000000000000000 ) ) ;
#283 = FACE_BOUND ( 'NONE', #122, .T. ) ;
#284 = EDGE_CURVE ( 'NONE', #135, #309, #276, .T. ) ;
#285 = DIRECTION ( 'NONE',  ( 1.000000000000000000, 0.000000000000000000, 0.000000000000000000 ) ) ;
#286 = FACE_OUTER_BOUND ( 'NONE', #72, .T. ) ;
#287 = LINE ( 'NONE', #82, #292 ) ;
#288 = ORIENTED_EDGE ( 'NONE', *, *, #237, .F. ) ;
#289 = VERTEX_POINT ( 'NONE', #70 ) ;
#290 = DIRECTION ( 'NONE',  ( 0.000000000000000000, 0.000000000000000000, 1.000000000000000000 ) ) ;
#291 = ORIENTED_EDGE ( 'NONE', *, *, #328, .T. ) ;
#292 = VECTOR ( 'NONE', #259, 1000.000000000000000 ) ;
#293 = ORIENTED_EDGE ( 'NONE', *, *, #111, .T. ) ;
#294 = PLANE ( 'NONE',  #17 ) ;
#295 = CC_DESIGN_PERSON_AND_ORGANIZATION_ASSIGNMENT ( #181, #29, ( #140 ) ) ;
#296 = DIRECTION ( 'NONE',  ( 0.000000000000000000, 0.000000000000000000, 1.000000000000000000 ) ) ;
#297 = CARTESIAN_POINT ( 'NONE',  ( 0.000000000000000000, 0.000000000000000000, 0.000000000000000000 ) ) ;
#298 = EDGE_LOOP ( 'NONE', ( #40, #222, #267, #172 ) ) ;
#299 = ADVANCED_FACE ( 'NONE', ( #89 ), #174, .F. ) ;
#300 = FACE_BOUND ( 'NONE', #167, .T. ) ;
#301 = AXIS2_PLACEMENT_3D ( 'NONE', #47, #19, #128 ) ;
#302 = SHAPE_DEFINITION_REPRESENTATION ( #99, #21 ) ;
#303 = CARTESIAN_POINT ( 'NONE',  ( 13.00000000000000000, 0.000000000000000000, 40.00000000000000000 ) ) ;
#304 = PERSON_AND_ORGANIZATION ( #107, #325 ) ;
#305 = DIRECTION ( 'NONE',  ( 1.000000000000000000, 0.000000000000000000, 0.000000000000000000 ) ) ;
#306 = PRODUCT_DEFINITION_FORMATION_WITH_SPECIFIED_SOURCE ( 'ANY', '', #140, .NOT_KNOWN. ) ;
#307 = DIRECTION ( 'NONE',  ( 0.000000000000000000, 0.000000000000000000, 1.000000000000000000 ) ) ;
#308 = EDGE_CURVE ( 'NONE', #273, #158, #171, .T. ) ;
#309 = VERTEX_POINT ( 'NONE', #252 ) ;
#310 = CYLINDRICAL_SURFACE ( 'NONE', #155, 25.00000000000000000 ) ;
#311 = EDGE_LOOP ( 'NONE', ( #28, #256, #191, #13 ) ) ;
#312 = VECTOR ( 'NONE', #240, 1000.000000000000000 ) ;
#313 = AXIS2_PLACEMENT_3D ( 'NONE', #144, #182, #100 ) ;
#314 = DIRECTION ( 'NONE',  ( 1.000000000000000000, 0.000000000000000000, 0.000000000000000000 ) ) ;
#315 = ORIENTED_EDGE ( 'NONE', *, *, #46, .T. ) ;
#316 = CYLINDRICAL_SURFACE ( 'NONE', #67, 25.00000000000000000 ) ;
#317 = CC_DESIGN_DATE_AND_TIME_ASSIGNMENT ( #38, #208, ( #221 ) ) ;
#318 = CARTESIAN_POINT ( 'NONE',  ( 13.00000000000000000, 0.000000000000000000, 35.00000000000000000 ) ) ;
#319 = ORIENTED_EDGE ( 'NONE', *, *, #179, .T. ) ;
#320 = CIRCLE ( 'NONE', #200, 13.00000000000000000 ) ;
#321 = CC_DESIGN_APPROVAL ( #160, ( #306 ) ) ;
#322 = FACE_BOUND ( 'NONE', #63, .T. ) ;
#323 = ADVANCED_FACE ( 'NONE', ( #268 ), #120, .F. ) ;
#324 = CALENDAR_DATE ( 2021, 25, 10 ) ;
#325 = ORGANIZATION ( 'UNSPECIFIED', 'UNSPECIFIED', '' ) ;
#326 = PERSON_AND_ORGANIZATION ( #107, #325 ) ;
#327 = DATE_TIME_ROLE ( 'creation_date' ) ;
#328 = EDGE_CURVE ( 'NONE', #255, #60, #145, .T. ) ;
#329 = ORIENTED_EDGE ( 'NONE', *, *, #64, .F. ) ;
ENDSEC;
END-ISO-10303-21;
