ISO-10303-21;
HEADER;
FILE_DESCRIPTION (( 'STEP AP203' ),
    '1' );
FILE_NAME ('bj623-16002.STEP',
    '2021-10-24T23:57:45',
    ( '' ),
    ( '' ),
    'SwSTEP 2.0',
    'SolidWorks 2020',
    '' );
FILE_SCHEMA (( 'CONFIG_CONTROL_DESIGN' ));
ENDSEC;

DATA;
#1 = AXIS2_PLACEMENT_3D ( 'NONE', #245, #70, #53 ) ;
#2 = EDGE_CURVE ( 'NONE', #191, #27, #11, .T. ) ;
#3 = ORIENTED_EDGE ( 'NONE', *, *, #154, .F. ) ;
#4 = APPROVAL_ROLE ( '' ) ;
#5 = VERTEX_POINT ( 'NONE', #86 ) ;
#6 = ADVANCED_FACE ( 'NONE', ( #215, #200 ), #8, .T. ) ;
#7 = ORIENTED_EDGE ( 'NONE', *, *, #56, .T. ) ;
#8 = PLANE ( 'NONE',  #41 ) ;
#9 = VERTEX_POINT ( 'NONE', #65 ) ;
#10 = EDGE_CURVE ( 'NONE', #197, #191, #125, .T. ) ;
#11 = CIRCLE ( 'NONE', #218, 8.500000000000000000 ) ;
#12 = CC_DESIGN_APPROVAL ( #202, ( #171 ) ) ;
#13 =( LENGTH_UNIT ( ) NAMED_UNIT ( * ) SI_UNIT ( .MILLI., .METRE. ) );
#14 = MANIFOLD_SOLID_BREP ( 'Imported1', #176 ) ;
#15 = LINE ( 'NONE', #213, #102 ) ;
#16 = EDGE_CURVE ( 'NONE', #197, #108, #66, .T. ) ;
#17 = EDGE_LOOP ( 'NONE', ( #77, #178, #147, #192 ) ) ;
#18 = DIRECTION ( 'NONE',  ( 0.000000000000000000, 0.000000000000000000, 1.000000000000000000 ) ) ;
#19 = CARTESIAN_POINT ( 'NONE',  ( -8.500000000000000000, 0.000000000000000000, 5.000000000000000000 ) ) ;
#20 = VERTEX_POINT ( 'NONE', #184 ) ;
#21 = DIRECTION ( 'NONE',  ( -1.000000000000000000, 0.000000000000000000, 0.000000000000000000 ) ) ;
#22 = DIRECTION ( 'NONE',  ( 1.000000000000000000, 0.000000000000000000, 0.000000000000000000 ) ) ;
#23 = CARTESIAN_POINT ( 'NONE',  ( 0.000000000000000000, 0.000000000000000000, 0.000000000000000000 ) ) ;
#24 = CARTESIAN_POINT ( 'NONE',  ( 8.500000000000000000, 1.040949779275250140E-15, 0.000000000000000000 ) ) ;
#25 = DIRECTION ( 'NONE',  ( 0.000000000000000000, 0.000000000000000000, 1.000000000000000000 ) ) ;
#26 = APPLICATION_PROTOCOL_DEFINITION ( 'international standard', 'config_control_design', 1994, #42 ) ;
#27 = VERTEX_POINT ( 'NONE', #93 ) ;
#28 = EDGE_LOOP ( 'NONE', ( #137, #118 ) ) ;
#29 = CARTESIAN_POINT ( 'NONE',  ( 0.000000000000000000, 0.000000000000000000, 5.000000000000000000 ) ) ;
#30 = EDGE_CURVE ( 'NONE', #27, #191, #208, .T. ) ;
#31 = FACE_OUTER_BOUND ( 'NONE', #17, .T. ) ;
#32 = ORIENTED_EDGE ( 'NONE', *, *, #154, .T. ) ;
#33 = ADVANCED_FACE ( 'NONE', ( #221 ), #91, .T. ) ;
#34 = PRODUCT ( 'bj623-16002', 'bj623-16002', '', ( #132 ) ) ;
#35 = APPROVAL_ROLE ( '' ) ;
#36 = CARTESIAN_POINT ( 'NONE',  ( 0.000000000000000000, 0.000000000000000000, 5.000000000000000000 ) ) ;
#37 = AXIS2_PLACEMENT_3D ( 'NONE', #23, #146, #247 ) ;
#38 = CIRCLE ( 'NONE', #111, 30.00000000000000000 ) ;
#39 = FACE_OUTER_BOUND ( 'NONE', #58, .T. ) ;
#40 = APPROVAL ( #196, 'UNSPECIFIED' ) ;
#41 = AXIS2_PLACEMENT_3D ( 'NONE', #29, #83, #161 ) ;
#42 = APPLICATION_CONTEXT ( 'configuration controlled 3d designs of mechanical parts and assemblies' ) ;
#43 =( NAMED_UNIT ( * ) SI_UNIT ( $, .STERADIAN. ) SOLID_ANGLE_UNIT ( ) );
#44 = ORGANIZATION ( 'UNSPECIFIED', 'UNSPECIFIED', '' ) ;
#45 = DIRECTION ( 'NONE',  ( 0.000000000000000000, 0.000000000000000000, -1.000000000000000000 ) ) ;
#46 = ADVANCED_FACE ( 'NONE', ( #73, #144 ), #49, .F. ) ;
#47 = LOCAL_TIME ( 8, 57, 45.00000000000000000, #129 ) ;
#48 = CARTESIAN_POINT ( 'NONE',  ( -30.00000000000000000, 0.000000000000000000, 5.000000000000000000 ) ) ;
#49 = PLANE ( 'NONE',  #170 ) ;
#50 = ORIENTED_EDGE ( 'NONE', *, *, #10, .T. ) ;
#51 = DATE_TIME_ROLE ( 'creation_date' ) ;
#52 = PERSON_AND_ORGANIZATION_ROLE ( 'classification_officer' ) ;
#53 = DIRECTION ( 'NONE',  ( 1.000000000000000000, 0.000000000000000000, 0.000000000000000000 ) ) ;
#54 = UNCERTAINTY_MEASURE_WITH_UNIT (LENGTH_MEASURE( 1.000000000000000082E-05 ), #13, 'distance_accuracy_value', 'NONE');
#55 = APPLICATION_PROTOCOL_DEFINITION ( 'international standard', 'config_control_design', 1994, #60 ) ;
#56 = EDGE_CURVE ( 'NONE', #20, #64, #82, .T. ) ;
#57 = ORIENTED_EDGE ( 'NONE', *, *, #30, .T. ) ;
#58 = EDGE_LOOP ( 'NONE', ( #160, #50, #162, #210 ) ) ;
#59 = DIRECTION ( 'NONE',  ( 0.000000000000000000, 0.000000000000000000, -1.000000000000000000 ) ) ;
#60 = APPLICATION_CONTEXT ( 'configuration controlled 3d designs of mechanical parts and assemblies' ) ;
#61 = VECTOR ( 'NONE', #59, 1000.000000000000000 ) ;
#62 = PERSON_AND_ORGANIZATION ( #193, #44 ) ;
#63 = CALENDAR_DATE ( 2021, 25, 10 ) ;
#64 = VERTEX_POINT ( 'NONE', #121 ) ;
#65 = CARTESIAN_POINT ( 'NONE',  ( 30.00000000000000000, 3.673940397442059178E-15, 0.000000000000000000 ) ) ;
#66 = CIRCLE ( 'NONE', #181, 8.500000000000000000 ) ;
#67 = APPROVAL_PERSON_ORGANIZATION ( #127, #157, #35 ) ;
#68 = CARTESIAN_POINT ( 'NONE',  ( 0.000000000000000000, 0.000000000000000000, 5.000000000000000000 ) ) ;
#69 = DIRECTION ( 'NONE',  ( 0.000000000000000000, 0.000000000000000000, -1.000000000000000000 ) ) ;
#70 = DIRECTION ( 'NONE',  ( 0.000000000000000000, 0.000000000000000000, 1.000000000000000000 ) ) ;
#71 = EDGE_CURVE ( 'NONE', #108, #197, #204, .T. ) ;
#72 = DIRECTION ( 'NONE',  ( 0.000000000000000000, 0.000000000000000000, 1.000000000000000000 ) ) ;
#73 = FACE_OUTER_BOUND ( 'NONE', #185, .T. ) ;
#74 = DIRECTION ( 'NONE',  ( 0.000000000000000000, 0.000000000000000000, -1.000000000000000000 ) ) ;
#75 = PERSON_AND_ORGANIZATION ( #193, #44 ) ;
#76 = COORDINATED_UNIVERSAL_TIME_OFFSET ( 9, 0, .AHEAD. ) ;
#77 = ORIENTED_EDGE ( 'NONE', *, *, #10, .F. ) ;
#78 = CC_DESIGN_DATE_AND_TIME_ASSIGNMENT ( #85, #214, ( #81 ) ) ;
#79 = APPROVAL_DATE_TIME ( #134, #202 ) ;
#80 = CARTESIAN_POINT ( 'NONE',  ( 0.000000000000000000, 0.000000000000000000, 0.000000000000000000 ) ) ;
#81 = SECURITY_CLASSIFICATION ( '', '', #223 ) ;
#82 = LINE ( 'NONE', #48, #61 ) ;
#83 = DIRECTION ( 'NONE',  ( 0.000000000000000000, 0.000000000000000000, 1.000000000000000000 ) ) ;
#84 = ORIENTED_EDGE ( 'NONE', *, *, #182, .T. ) ;
#85 = DATE_AND_TIME ( #203, #47 ) ;
#86 = CARTESIAN_POINT ( 'NONE',  ( 30.00000000000000000, 3.673940397442059178E-15, 5.000000000000000000 ) ) ;
#87 = CIRCLE ( 'NONE', #1, 30.00000000000000000 ) ;
#88 = PERSON_AND_ORGANIZATION_ROLE ( 'creator' ) ;
#89 = COORDINATED_UNIVERSAL_TIME_OFFSET ( 9, 0, .AHEAD. ) ;
#90 = DIRECTION ( 'NONE',  ( 0.000000000000000000, 0.000000000000000000, -1.000000000000000000 ) ) ;
#91 = CYLINDRICAL_SURFACE ( 'NONE', #105, 30.00000000000000000 ) ;
#92 = PERSON_AND_ORGANIZATION ( #193, #44 ) ;
#93 = CARTESIAN_POINT ( 'NONE',  ( -8.500000000000000000, 0.000000000000000000, 0.000000000000000000 ) ) ;
#94 = DIRECTION ( 'NONE',  ( -1.000000000000000000, 0.000000000000000000, 0.000000000000000000 ) ) ;
#95 = DIRECTION ( 'NONE',  ( -1.000000000000000000, 0.000000000000000000, 0.000000000000000000 ) ) ;
#96 = ORIENTED_EDGE ( 'NONE', *, *, #145, .T. ) ;
#97 = AXIS2_PLACEMENT_3D ( 'NONE', #211, #103, #172 ) ;
#98 = DIRECTION ( 'NONE',  ( 1.000000000000000000, 0.000000000000000000, 0.000000000000000000 ) ) ;
#99 = APPROVAL_PERSON_ORGANIZATION ( #100, #202, #4 ) ;
#100 = PERSON_AND_ORGANIZATION ( #193, #44 ) ;
#101 = AXIS2_PLACEMENT_3D ( 'NONE', #246, #72, #128 ) ;
#102 = VECTOR ( 'NONE', #45, 1000.000000000000000 ) ;
#103 = DIRECTION ( 'NONE',  ( 0.000000000000000000, 0.000000000000000000, 1.000000000000000000 ) ) ;
#104 = CARTESIAN_POINT ( 'NONE',  ( 0.000000000000000000, 0.000000000000000000, 0.000000000000000000 ) ) ;
#105 = AXIS2_PLACEMENT_3D ( 'NONE', #225, #224, #94 ) ;
#106 = PRODUCT_DEFINITION_FORMATION_WITH_SPECIFIED_SOURCE ( 'ANY', '', #34, .NOT_KNOWN. ) ;
#107 = APPROVAL_ROLE ( '' ) ;
#108 = VERTEX_POINT ( 'NONE', #19 ) ;
#109 = CC_DESIGN_PERSON_AND_ORGANIZATION_ASSIGNMENT ( #75, #190, ( #34 ) ) ;
#110 = COORDINATED_UNIVERSAL_TIME_OFFSET ( 9, 0, .AHEAD. ) ;
#111 = AXIS2_PLACEMENT_3D ( 'NONE', #104, #175, #140 ) ;
#112 = APPROVAL_STATUS ( 'not_yet_approved' ) ;
#113 = CARTESIAN_POINT ( 'NONE',  ( 8.500000000000000000, 1.040949779275250140E-15, 5.000000000000000000 ) ) ;
#114 = APPROVAL_DATE_TIME ( #169, #40 ) ;
#115 = AXIS2_PLACEMENT_3D ( 'NONE', #153, #25, #98 ) ;
#116 = ORIENTED_EDGE ( 'NONE', *, *, #145, .F. ) ;
#117 = EDGE_CURVE ( 'NONE', #5, #20, #138, .T. ) ;
#118 = ORIENTED_EDGE ( 'NONE', *, *, #16, .F. ) ;
#119 = ORIENTED_EDGE ( 'NONE', *, *, #56, .F. ) ;
#120 = DIRECTION ( 'NONE',  ( 1.000000000000000000, 0.000000000000000000, 0.000000000000000000 ) ) ;
#121 = CARTESIAN_POINT ( 'NONE',  ( -30.00000000000000000, 0.000000000000000000, 0.000000000000000000 ) ) ;
#122 = CC_DESIGN_PERSON_AND_ORGANIZATION_ASSIGNMENT ( #142, #52, ( #81 ) ) ;
#123 = PERSON_AND_ORGANIZATION ( #193, #44 ) ;
#124 = ORIENTED_EDGE ( 'NONE', *, *, #212, .F. ) ;
#125 = LINE ( 'NONE', #113, #173 ) ;
#126 = DIRECTION ( 'NONE',  ( 0.000000000000000000, 0.000000000000000000, 1.000000000000000000 ) ) ;
#127 = PERSON_AND_ORGANIZATION ( #193, #44 ) ;
#128 = DIRECTION ( 'NONE',  ( 1.000000000000000000, 0.000000000000000000, 0.000000000000000000 ) ) ;
#129 = COORDINATED_UNIVERSAL_TIME_OFFSET ( 9, 0, .AHEAD. ) ;
#130 = VECTOR ( 'NONE', #177, 1000.000000000000000 ) ;
#131 = CARTESIAN_POINT ( 'NONE',  ( 8.500000000000000000, 1.040949779275250140E-15, 5.000000000000000000 ) ) ;
#132 = MECHANICAL_CONTEXT ( 'NONE', #60, 'mechanical' ) ;
#133 = ORIENTED_EDGE ( 'NONE', *, *, #2, .T. ) ;
#134 = DATE_AND_TIME ( #232, #226 ) ;
#135 = EDGE_LOOP ( 'NONE', ( #96, #230 ) ) ;
#136 = DIRECTION ( 'NONE',  ( 1.000000000000000000, 0.000000000000000000, 0.000000000000000000 ) ) ;
#137 = ORIENTED_EDGE ( 'NONE', *, *, #71, .F. ) ;
#138 = CIRCLE ( 'NONE', #101, 30.00000000000000000 ) ;
#139 = CC_DESIGN_APPROVAL ( #40, ( #81 ) ) ;
#140 = DIRECTION ( 'NONE',  ( 1.000000000000000000, 0.000000000000000000, 0.000000000000000000 ) ) ;
#141 = APPROVAL_PERSON_ORGANIZATION ( #123, #40, #107 ) ;
#142 = PERSON_AND_ORGANIZATION ( #193, #44 ) ;
#143 = DATE_AND_TIME ( #63, #237 ) ;
#144 = FACE_BOUND ( 'NONE', #217, .T. ) ;
#145 = EDGE_CURVE ( 'NONE', #20, #5, #236, .T. ) ;
#146 = DIRECTION ( 'NONE',  ( 0.000000000000000000, 0.000000000000000000, 1.000000000000000000 ) ) ;
#147 = ORIENTED_EDGE ( 'NONE', *, *, #233, .T. ) ;
#148 = CARTESIAN_POINT ( 'NONE',  ( 30.00000000000000000, 3.673940397442059178E-15, 5.000000000000000000 ) ) ;
#149 = CYLINDRICAL_SURFACE ( 'NONE', #151, 30.00000000000000000 ) ;
#150 = CC_DESIGN_PERSON_AND_ORGANIZATION_ASSIGNMENT ( #62, #216, ( #106 ) ) ;
#151 = AXIS2_PLACEMENT_3D ( 'NONE', #36, #90, #21 ) ;
#152 = DIRECTION ( 'NONE',  ( -1.000000000000000000, 0.000000000000000000, 0.000000000000000000 ) ) ;
#153 = CARTESIAN_POINT ( 'NONE',  ( 0.000000000000000000, 0.000000000000000000, 0.000000000000000000 ) ) ;
#154 = EDGE_CURVE ( 'NONE', #5, #9, #198, .T. ) ;
#155 = DESIGN_CONTEXT ( 'detailed design', #42, 'design' ) ;
#156 = ORIENTED_EDGE ( 'NONE', *, *, #182, .F. ) ;
#157 = APPROVAL ( #112, 'UNSPECIFIED' ) ;
#158 = CYLINDRICAL_SURFACE ( 'NONE', #205, 8.500000000000000000 ) ;
#159 = APPROVAL_DATE_TIME ( #143, #157 ) ;
#160 = ORIENTED_EDGE ( 'NONE', *, *, #71, .T. ) ;
#161 = DIRECTION ( 'NONE',  ( 1.000000000000000000, 0.000000000000000000, 0.000000000000000000 ) ) ;
#162 = ORIENTED_EDGE ( 'NONE', *, *, #30, .F. ) ;
#163 = CC_DESIGN_PERSON_AND_ORGANIZATION_ASSIGNMENT ( #92, #88, ( #171 ) ) ;
#164 = CYLINDRICAL_SURFACE ( 'NONE', #174, 8.500000000000000000 ) ;
#165 = ADVANCED_FACE ( 'NONE', ( #201 ), #149, .T. ) ;
#166 = APPROVAL_STATUS ( 'not_yet_approved' ) ;
#167 = ADVANCED_BREP_SHAPE_REPRESENTATION ( 'bj623-16002', ( #14, #115 ), #219 ) ;
#168 = EDGE_LOOP ( 'NONE', ( #194, #32, #84, #119 ) ) ;
#169 = DATE_AND_TIME ( #231, #195 ) ;
#170 = AXIS2_PLACEMENT_3D ( 'NONE', #199, #179, #136 ) ;
#171 = PRODUCT_DEFINITION ( 'UNKNOWN', '', #106, #155 ) ;
#172 = DIRECTION ( 'NONE',  ( 1.000000000000000000, 0.000000000000000000, 0.000000000000000000 ) ) ;
#173 = VECTOR ( 'NONE', #69, 1000.000000000000000 ) ;
#174 = AXIS2_PLACEMENT_3D ( 'NONE', #249, #74, #152 ) ;
#175 = DIRECTION ( 'NONE',  ( 0.000000000000000000, 0.000000000000000000, 1.000000000000000000 ) ) ;
#176 = CLOSED_SHELL ( 'NONE', ( #207, #165, #6, #46, #33, #188 ) ) ;
#177 = DIRECTION ( 'NONE',  ( 0.000000000000000000, 0.000000000000000000, -1.000000000000000000 ) ) ;
#178 = ORIENTED_EDGE ( 'NONE', *, *, #16, .T. ) ;
#179 = DIRECTION ( 'NONE',  ( 0.000000000000000000, 0.000000000000000000, 1.000000000000000000 ) ) ;
#180 = PERSON_AND_ORGANIZATION ( #193, #44 ) ;
#181 = AXIS2_PLACEMENT_3D ( 'NONE', #240, #18, #187 ) ;
#182 = EDGE_CURVE ( 'NONE', #9, #64, #87, .T. ) ;
#183 = EDGE_LOOP ( 'NONE', ( #3, #116, #7, #228 ) ) ;
#184 = CARTESIAN_POINT ( 'NONE',  ( -30.00000000000000000, 0.000000000000000000, 5.000000000000000000 ) ) ;
#185 = EDGE_LOOP ( 'NONE', ( #124, #156 ) ) ;
#186 =( NAMED_UNIT ( * ) PLANE_ANGLE_UNIT ( ) SI_UNIT ( $, .RADIAN. ) );
#187 = DIRECTION ( 'NONE',  ( 1.000000000000000000, 0.000000000000000000, 0.000000000000000000 ) ) ;
#188 = ADVANCED_FACE ( 'NONE', ( #31 ), #158, .F. ) ;
#189 = LOCAL_TIME ( 8, 57, 45.00000000000000000, #89 ) ;
#190 = PERSON_AND_ORGANIZATION_ROLE ( 'design_owner' ) ;
#191 = VERTEX_POINT ( 'NONE', #24 ) ;
#192 = ORIENTED_EDGE ( 'NONE', *, *, #2, .F. ) ;
#193 = PERSON ( 'UNSPECIFIED', 'UNSPECIFIED', 'UNSPECIFIED', ('UNSPECIFIED'), ('UNSPECIFIED'), ('UNSPECIFIED') ) ;
#194 = ORIENTED_EDGE ( 'NONE', *, *, #117, .F. ) ;
#195 = LOCAL_TIME ( 8, 57, 45.00000000000000000, #248 ) ;
#196 = APPROVAL_STATUS ( 'not_yet_approved' ) ;
#197 = VERTEX_POINT ( 'NONE', #131 ) ;
#198 = LINE ( 'NONE', #148, #130 ) ;
#199 = CARTESIAN_POINT ( 'NONE',  ( 0.000000000000000000, 0.000000000000000000, 0.000000000000000000 ) ) ;
#200 = FACE_BOUND ( 'NONE', #28, .T. ) ;
#201 = FACE_OUTER_BOUND ( 'NONE', #168, .T. ) ;
#202 = APPROVAL ( #166, 'UNSPECIFIED' ) ;
#203 = CALENDAR_DATE ( 2021, 25, 10 ) ;
#204 = CIRCLE ( 'NONE', #97, 8.500000000000000000 ) ;
#205 = AXIS2_PLACEMENT_3D ( 'NONE', #206, #227, #95 ) ;
#206 = CARTESIAN_POINT ( 'NONE',  ( 0.000000000000000000, 0.000000000000000000, 5.000000000000000000 ) ) ;
#207 = ADVANCED_FACE ( 'NONE', ( #39 ), #164, .F. ) ;
#208 = CIRCLE ( 'NONE', #37, 8.500000000000000000 ) ;
#209 = CC_DESIGN_PERSON_AND_ORGANIZATION_ASSIGNMENT ( #180, #244, ( #106 ) ) ;
#210 = ORIENTED_EDGE ( 'NONE', *, *, #233, .F. ) ;
#211 = CARTESIAN_POINT ( 'NONE',  ( 0.000000000000000000, 0.000000000000000000, 5.000000000000000000 ) ) ;
#212 = EDGE_CURVE ( 'NONE', #64, #9, #38, .T. ) ;
#213 = CARTESIAN_POINT ( 'NONE',  ( -8.500000000000000000, 0.000000000000000000, 5.000000000000000000 ) ) ;
#214 = DATE_TIME_ROLE ( 'classification_date' ) ;
#215 = FACE_OUTER_BOUND ( 'NONE', #135, .T. ) ;
#216 = PERSON_AND_ORGANIZATION_ROLE ( 'design_supplier' ) ;
#217 = EDGE_LOOP ( 'NONE', ( #57, #133 ) ) ;
#218 = AXIS2_PLACEMENT_3D ( 'NONE', #80, #235, #120 ) ;
#219 =( GEOMETRIC_REPRESENTATION_CONTEXT ( 3 ) GLOBAL_UNCERTAINTY_ASSIGNED_CONTEXT ( ( #54 ) ) GLOBAL_UNIT_ASSIGNED_CONTEXT ( ( #13, #186, #43 ) ) REPRESENTATION_CONTEXT ( 'NONE', 'WORKASPACE' ) );
#220 = CC_DESIGN_SECURITY_CLASSIFICATION ( #81, ( #106 ) ) ;
#221 = FACE_OUTER_BOUND ( 'NONE', #183, .T. ) ;
#222 = CC_DESIGN_DATE_AND_TIME_ASSIGNMENT ( #241, #51, ( #171 ) ) ;
#223 = SECURITY_CLASSIFICATION_LEVEL ( 'unclassified' ) ;
#224 = DIRECTION ( 'NONE',  ( 0.000000000000000000, 0.000000000000000000, -1.000000000000000000 ) ) ;
#225 = CARTESIAN_POINT ( 'NONE',  ( 0.000000000000000000, 0.000000000000000000, 5.000000000000000000 ) ) ;
#226 = LOCAL_TIME ( 8, 57, 45.00000000000000000, #76 ) ;
#227 = DIRECTION ( 'NONE',  ( 0.000000000000000000, 0.000000000000000000, -1.000000000000000000 ) ) ;
#228 = ORIENTED_EDGE ( 'NONE', *, *, #212, .T. ) ;
#229 = SHAPE_DEFINITION_REPRESENTATION ( #243, #167 ) ;
#230 = ORIENTED_EDGE ( 'NONE', *, *, #117, .T. ) ;
#231 = CALENDAR_DATE ( 2021, 25, 10 ) ;
#232 = CALENDAR_DATE ( 2021, 25, 10 ) ;
#233 = EDGE_CURVE ( 'NONE', #108, #27, #15, .T. ) ;
#234 = AXIS2_PLACEMENT_3D ( 'NONE', #68, #126, #22 ) ;
#235 = DIRECTION ( 'NONE',  ( 0.000000000000000000, 0.000000000000000000, 1.000000000000000000 ) ) ;
#236 = CIRCLE ( 'NONE', #234, 30.00000000000000000 ) ;
#237 = LOCAL_TIME ( 8, 57, 45.00000000000000000, #110 ) ;
#238 = PRODUCT_RELATED_PRODUCT_CATEGORY ( 'detail', '', ( #34 ) ) ;
#239 = CALENDAR_DATE ( 2021, 25, 10 ) ;
#240 = CARTESIAN_POINT ( 'NONE',  ( 0.000000000000000000, 0.000000000000000000, 5.000000000000000000 ) ) ;
#241 = DATE_AND_TIME ( #239, #189 ) ;
#242 = CC_DESIGN_APPROVAL ( #157, ( #106 ) ) ;
#243 = PRODUCT_DEFINITION_SHAPE ( 'NONE', 'NONE',  #171 ) ;
#244 = PERSON_AND_ORGANIZATION_ROLE ( 'creator' ) ;
#245 = CARTESIAN_POINT ( 'NONE',  ( 0.000000000000000000, 0.000000000000000000, 0.000000000000000000 ) ) ;
#246 = CARTESIAN_POINT ( 'NONE',  ( 0.000000000000000000, 0.000000000000000000, 5.000000000000000000 ) ) ;
#247 = DIRECTION ( 'NONE',  ( 1.000000000000000000, 0.000000000000000000, 0.000000000000000000 ) ) ;
#248 = COORDINATED_UNIVERSAL_TIME_OFFSET ( 9, 0, .AHEAD. ) ;
#249 = CARTESIAN_POINT ( 'NONE',  ( 0.000000000000000000, 0.000000000000000000, 5.000000000000000000 ) ) ;
ENDSEC;
END-ISO-10303-21;
