ISO-10303-21;
HEADER;
FILE_DESCRIPTION (( 'STEP AP203' ),
    '1' );
FILE_NAME ('bj720-08001.STEP',
    '2021-10-24T23:59:09',
    ( '' ),
    ( '' ),
    'SwSTEP 2.0',
    'SolidWorks 2020',
    '' );
FILE_SCHEMA (( 'CONFIG_CONTROL_DESIGN' ));
ENDSEC;

DATA;
#1 = PERSON_AND_ORGANIZATION_ROLE ( 'design_supplier' ) ;
#2 = EDGE_CURVE ( 'NONE', #323, #166, #80, .T. ) ;
#3 = DIRECTION ( 'NONE',  ( 1.000000000000000000, 0.000000000000000000, 0.000000000000000000 ) ) ;
#4 = VERTEX_POINT ( 'NONE', #330 ) ;
#5 = ORIENTED_EDGE ( 'NONE', *, *, #197, .F. ) ;
#6 = CARTESIAN_POINT ( 'NONE',  ( 0.000000000000000000, 0.000000000000000000, 0.000000000000000000 ) ) ;
#7 = EDGE_CURVE ( 'NONE', #142, #268, #111, .T. ) ;
#8 = DIRECTION ( 'NONE',  ( 0.000000000000000000, 0.000000000000000000, 1.000000000000000000 ) ) ;
#9 = APPROVAL_DATE_TIME ( #242, #42 ) ;
#10 = AXIS2_PLACEMENT_3D ( 'NONE', #6, #125, #76 ) ;
#11 = FACE_OUTER_BOUND ( 'NONE', #192, .T. ) ;
#12 = PERSON_AND_ORGANIZATION ( #132, #136 ) ;
#13 = EDGE_LOOP ( 'NONE', ( #340, #133 ) ) ;
#14 = ADVANCED_FACE ( 'NONE', ( #311 ), #346, .F. ) ;
#15 = VECTOR ( 'NONE', #266, 1000.000000000000000 ) ;
#16 = EDGE_CURVE ( 'NONE', #185, #53, #141, .T. ) ;
#17 = AXIS2_PLACEMENT_3D ( 'NONE', #173, #255, #230 ) ;
#18 = AXIS2_PLACEMENT_3D ( 'NONE', #224, #130, #3 ) ;
#19 = CARTESIAN_POINT ( 'NONE',  ( 4.000000000000000000, 0.000000000000000000, 22.00000000000000000 ) ) ;
#20 = PRODUCT ( 'bj720-08001', 'bj720-08001', '', ( #240 ) ) ;
#21 = DIRECTION ( 'NONE',  ( 1.000000000000000000, 0.000000000000000000, 0.000000000000000000 ) ) ;
#22 = AXIS2_PLACEMENT_3D ( 'NONE', #228, #92, #203 ) ;
#23 = AXIS2_PLACEMENT_3D ( 'NONE', #168, #77, #184 ) ;
#24 = CARTESIAN_POINT ( 'NONE',  ( -2.845299461620744985, 4.191537037439472585E-16, 0.000000000000000000 ) ) ;
#25 = FACE_OUTER_BOUND ( 'NONE', #239, .T. ) ;
#26 = CARTESIAN_POINT ( 'NONE',  ( -4.000000000000000000, 4.898587196589412829E-16, 2.000000000000000000 ) ) ;
#27 = LINE ( 'NONE', #350, #114 ) ;
#28 = APPLICATION_PROTOCOL_DEFINITION ( 'international standard', 'config_control_design', 1994, #91 ) ;
#29 = APPROVAL_PERSON_ORGANIZATION ( #245, #172, #75 ) ;
#30 = APPROVAL_STATUS ( 'not_yet_approved' ) ;
#31 = ORIENTED_EDGE ( 'NONE', *, *, #232, .T. ) ;
#32 = VERTEX_POINT ( 'NONE', #47 ) ;
#33 = ORIENTED_EDGE ( 'NONE', *, *, #2, .T. ) ;
#34 = CC_DESIGN_PERSON_AND_ORGANIZATION_ASSIGNMENT ( #271, #36, ( #195 ) ) ;
#35 = ORIENTED_EDGE ( 'NONE', *, *, #352, .F. ) ;
#36 = PERSON_AND_ORGANIZATION_ROLE ( 'classification_officer' ) ;
#37 = VECTOR ( 'NONE', #41, 1000.000000000000000 ) ;
#38 = CIRCLE ( 'NONE', #213, 1.500000000000000000 ) ;
#39 = DIRECTION ( 'NONE',  ( 0.000000000000000000, 0.000000000000000000, 1.000000000000000000 ) ) ;
#40 = AXIS2_PLACEMENT_3D ( 'NONE', #254, #154, #231 ) ;
#41 = DIRECTION ( 'NONE',  ( 0.000000000000000000, 0.000000000000000000, 1.000000000000000000 ) ) ;
#42 = APPROVAL ( #293, 'UNSPECIFIED' ) ;
#43 = CARTESIAN_POINT ( 'NONE',  ( 4.000000000000000000, 4.898587196589412829E-16, 22.00000000000000000 ) ) ;
#44 = CARTESIAN_POINT ( 'NONE',  ( -4.000000000000000000, 0.000000000000000000, 22.00000000000000000 ) ) ;
#45 = ADVANCED_FACE ( 'NONE', ( #116 ), #152, .F. ) ;
#46 = CARTESIAN_POINT ( 'NONE',  ( 0.000000000000000000, 0.000000000000000000, 2.000000000000000000 ) ) ;
#47 = CARTESIAN_POINT ( 'NONE',  ( 2.845299461620744985, 0.000000000000000000, 0.000000000000000000 ) ) ;
#48 = ADVANCED_FACE ( 'NONE', ( #347 ), #317, .T. ) ;
#49 = CARTESIAN_POINT ( 'NONE',  ( -4.000000000000000000, 4.898587196589412829E-16, 22.00000000000000000 ) ) ;
#50 = COORDINATED_UNIVERSAL_TIME_OFFSET ( 9, 0, .AHEAD. ) ;
#51 = AXIS2_PLACEMENT_3D ( 'NONE', #73, #182, #287 ) ;
#52 = LOCAL_TIME ( 8, 59, 9.000000000000000000, #160 ) ;
#53 = VERTEX_POINT ( 'NONE', #153 ) ;
#54 = PERSON_AND_ORGANIZATION_ROLE ( 'design_owner' ) ;
#55 = CARTESIAN_POINT ( 'NONE',  ( 0.000000000000000000, 0.000000000000000000, 25.00000000000000000 ) ) ;
#56 = CC_DESIGN_PERSON_AND_ORGANIZATION_ASSIGNMENT ( #298, #236, ( #270 ) ) ;
#57 = EDGE_LOOP ( 'NONE', ( #341, #109, #206, #162 ) ) ;
#58 = ORIENTED_EDGE ( 'NONE', *, *, #66, .T. ) ;
#59 = CIRCLE ( 'NONE', #120, 2.845299461620744985 ) ;
#60 = APPROVAL_PERSON_ORGANIZATION ( #324, #321, #217 ) ;
#61 = EDGE_LOOP ( 'NONE', ( #176, #134, #263, #78 ) ) ;
#62 = AXIS2_PLACEMENT_3D ( 'NONE', #55, #329, #332 ) ;
#63 = LOCAL_TIME ( 8, 59, 9.000000000000000000, #107 ) ;
#64 = DIRECTION ( 'NONE',  ( 1.000000000000000000, 0.000000000000000000, 0.000000000000000000 ) ) ;
#65 = CC_DESIGN_DATE_AND_TIME_ASSIGNMENT ( #99, #156, ( #195 ) ) ;
#66 = EDGE_CURVE ( 'NONE', #32, #241, #59, .T. ) ;
#67 = CARTESIAN_POINT ( 'NONE',  ( 0.000000000000000000, 0.000000000000000000, 2.000000000000000000 ) ) ;
#68 =( NAMED_UNIT ( * ) SI_UNIT ( $, .STERADIAN. ) SOLID_ANGLE_UNIT ( ) );
#69 = DIRECTION ( 'NONE',  ( 0.000000000000000000, 0.000000000000000000, 1.000000000000000000 ) ) ;
#70 = DIRECTION ( 'NONE',  ( 0.000000000000000000, 0.000000000000000000, 1.000000000000000000 ) ) ;
#71 = CLOSED_SHELL ( 'NONE', ( #14, #227, #148, #257, #137, #237, #48, #187, #314, #45, #238 ) ) ;
#72 = LOCAL_TIME ( 8, 59, 9.000000000000000000, #50 ) ;
#73 = CARTESIAN_POINT ( 'NONE',  ( 0.000000000000000000, 0.000000000000000000, 50.00000000000000000 ) ) ;
#74 = LINE ( 'NONE', #43, #95 ) ;
#75 = APPROVAL_ROLE ( '' ) ;
#76 = DIRECTION ( 'NONE',  ( 1.000000000000000000, 0.000000000000000000, 0.000000000000000000 ) ) ;
#77 = DIRECTION ( 'NONE',  ( 0.000000000000000000, 0.000000000000000000, 1.000000000000000000 ) ) ;
#78 = ORIENTED_EDGE ( 'NONE', *, *, #140, .T. ) ;
#79 = EDGE_LOOP ( 'NONE', ( #262, #108, #246, #105 ) ) ;
#80 = CIRCLE ( 'NONE', #251, 4.000000000000000000 ) ;
#81 = ORIENTED_EDGE ( 'NONE', *, *, #339, .F. ) ;
#82 = PRODUCT_DEFINITION_SHAPE ( 'NONE', 'NONE',  #270 ) ;
#83 = SECURITY_CLASSIFICATION_LEVEL ( 'unclassified' ) ;
#84 = CARTESIAN_POINT ( 'NONE',  ( 2.267949192431115257, 0.000000000000000000, 25.00000000000000000 ) ) ;
#85 = AXIS2_PLACEMENT_3D ( 'NONE', #273, #219, #174 ) ;
#86 = AXIS2_PLACEMENT_3D ( 'NONE', #84, #259, #353 ) ;
#87 = PLANE ( 'NONE',  #86 ) ;
#88 = DIRECTION ( 'NONE',  ( 1.000000000000000000, 0.000000000000000000, 0.000000000000000000 ) ) ;
#89 = FACE_OUTER_BOUND ( 'NONE', #163, .T. ) ;
#90 = CARTESIAN_POINT ( 'NONE',  ( 2.267949192431115257, 3.838011957864500244E-16, 25.00000000000000000 ) ) ;
#91 = APPLICATION_CONTEXT ( 'configuration controlled 3d designs of mechanical parts and assemblies' ) ;
#92 = DIRECTION ( 'NONE',  ( 0.000000000000000000, 0.000000000000000000, 1.000000000000000000 ) ) ;
#93 = CARTESIAN_POINT ( 'NONE',  ( -4.000000000000000000, 4.898587196589412829E-16, 50.00000000000000000 ) ) ;
#94 = DIRECTION ( 'NONE',  ( -0.4999999999999998890, 6.123233995736764803E-17, 0.8660254037844387076 ) ) ;
#95 = VECTOR ( 'NONE', #315, 1000.000000000000114 ) ;
#96 = AXIS2_PLACEMENT_3D ( 'NONE', #46, #123, #349 ) ;
#97 = DIRECTION ( 'NONE',  ( 0.4999999999999998890, 0.000000000000000000, 0.8660254037844387076 ) ) ;
#98 = LINE ( 'NONE', #119, #221 ) ;
#99 = DATE_AND_TIME ( #139, #72 ) ;
#100 = PERSON_AND_ORGANIZATION ( #132, #136 ) ;
#101 = ORIENTED_EDGE ( 'NONE', *, *, #149, .F. ) ;
#102 = CALENDAR_DATE ( 2021, 25, 10 ) ;
#103 = AXIS2_PLACEMENT_3D ( 'NONE', #178, #306, #115 ) ;
#104 = AXIS2_PLACEMENT_3D ( 'NONE', #258, #316, #126 ) ;
#105 = ORIENTED_EDGE ( 'NONE', *, *, #2, .F. ) ;
#106 = DATE_TIME_ROLE ( 'creation_date' ) ;
#107 = COORDINATED_UNIVERSAL_TIME_OFFSET ( 9, 0, .AHEAD. ) ;
#108 = ORIENTED_EDGE ( 'NONE', *, *, #339, .T. ) ;
#109 = ORIENTED_EDGE ( 'NONE', *, *, #304, .T. ) ;
#110 = ORIENTED_EDGE ( 'NONE', *, *, #300, .T. ) ;
#111 = LINE ( 'NONE', #117, #318 ) ;
#112 = ORIENTED_EDGE ( 'NONE', *, *, #222, .T. ) ;
#113 = DIRECTION ( 'NONE',  ( 1.000000000000000000, 0.000000000000000000, 0.000000000000000000 ) ) ;
#114 = VECTOR ( 'NONE', #97, 1000.000000000000000 ) ;
#115 = DIRECTION ( 'NONE',  ( 1.000000000000000000, 0.000000000000000000, 0.000000000000000000 ) ) ;
#116 = FACE_OUTER_BOUND ( 'NONE', #61, .T. ) ;
#117 = CARTESIAN_POINT ( 'NONE',  ( 1.500000000000000000, 0.000000000000000000, 50.00000000000000000 ) ) ;
#118 = DIRECTION ( 'NONE',  ( -0.5000000000000003331, 0.000000000000000000, -0.8660254037844383745 ) ) ;
#119 = CARTESIAN_POINT ( 'NONE',  ( -4.000000000000000000, 4.898587196589412829E-16, 2.000000000000000000 ) ) ;
#120 = AXIS2_PLACEMENT_3D ( 'NONE', #279, #342, #146 ) ;
#121 =( GEOMETRIC_REPRESENTATION_CONTEXT ( 3 ) GLOBAL_UNCERTAINTY_ASSIGNED_CONTEXT ( ( #247 ) ) GLOBAL_UNIT_ASSIGNED_CONTEXT ( ( #210, #250, #68 ) ) REPRESENTATION_CONTEXT ( 'NONE', 'WORKASPACE' ) );
#122 = DIRECTION ( 'NONE',  ( 0.000000000000000000, 0.000000000000000000, 1.000000000000000000 ) ) ;
#123 = DIRECTION ( 'NONE',  ( 0.000000000000000000, 0.000000000000000000, 1.000000000000000000 ) ) ;
#124 = CARTESIAN_POINT ( 'NONE',  ( -1.500000000000000000, 1.836970198721029934E-16, 25.00000000000000000 ) ) ;
#125 = DIRECTION ( 'NONE',  ( 0.000000000000000000, 0.000000000000000000, 1.000000000000000000 ) ) ;
#126 = DIRECTION ( 'NONE',  ( -1.000000000000000000, 0.000000000000000000, 0.000000000000000000 ) ) ;
#127 = DATE_AND_TIME ( #218, #63 ) ;
#128 = CIRCLE ( 'NONE', #22, 1.500000000000000000 ) ;
#129 = APPROVAL_DATE_TIME ( #127, #321 ) ;
#130 = DIRECTION ( 'NONE',  ( 0.000000000000000000, 0.000000000000000000, 1.000000000000000000 ) ) ;
#131 = ORIENTED_EDGE ( 'NONE', *, *, #300, .F. ) ;
#132 = PERSON ( 'UNSPECIFIED', 'UNSPECIFIED', 'UNSPECIFIED', ('UNSPECIFIED'), ('UNSPECIFIED'), ('UNSPECIFIED') ) ;
#133 = ORIENTED_EDGE ( 'NONE', *, *, #161, .F. ) ;
#134 = ORIENTED_EDGE ( 'NONE', *, *, #223, .F. ) ;
#135 = CALENDAR_DATE ( 2021, 25, 10 ) ;
#136 = ORGANIZATION ( 'UNSPECIFIED', 'UNSPECIFIED', '' ) ;
#137 = ADVANCED_FACE ( 'NONE', ( #89 ), #199, .F. ) ;
#138 = ORIENTED_EDGE ( 'NONE', *, *, #16, .F. ) ;
#139 = CALENDAR_DATE ( 2021, 25, 10 ) ;
#140 = EDGE_CURVE ( 'NONE', #268, #297, #169, .T. ) ;
#141 = CIRCLE ( 'NONE', #103, 2.267949192431115257 ) ;
#142 = VERTEX_POINT ( 'NONE', #243 ) ;
#143 = CARTESIAN_POINT ( 'NONE',  ( -1.500000000000000000, 1.836970198721029934E-16, 19.00000000000000000 ) ) ;
#144 = CARTESIAN_POINT ( 'NONE',  ( 0.000000000000000000, 0.000000000000000000, 19.00000000000000000 ) ) ;
#145 = ORIENTED_EDGE ( 'NONE', *, *, #232, .F. ) ;
#146 = DIRECTION ( 'NONE',  ( 1.000000000000000000, 0.000000000000000000, 0.000000000000000000 ) ) ;
#147 = ORIENTED_EDGE ( 'NONE', *, *, #222, .F. ) ;
#148 = ADVANCED_FACE ( 'NONE', ( #11 ), #194, .T. ) ;
#149 = EDGE_CURVE ( 'NONE', #53, #323, #200, .T. ) ;
#150 = MANIFOLD_SOLID_BREP ( 'Imported1', #71 ) ;
#151 = CC_DESIGN_SECURITY_CLASSIFICATION ( #195, ( #338 ) ) ;
#152 = CYLINDRICAL_SURFACE ( 'NONE', #17, 1.500000000000000000 ) ;
#153 = CARTESIAN_POINT ( 'NONE',  ( -2.267949192431115257, 0.000000000000000000, 25.00000000000000000 ) ) ;
#154 = DIRECTION ( 'NONE',  ( 0.000000000000000000, 0.000000000000000000, 1.000000000000000000 ) ) ;
#155 = CARTESIAN_POINT ( 'NONE',  ( -1.500000000000000000, 1.836970198721029934E-16, 50.00000000000000000 ) ) ;
#156 = DATE_TIME_ROLE ( 'classification_date' ) ;
#157 = AXIS2_PLACEMENT_3D ( 'NONE', #209, #70, #256 ) ;
#158 = DIRECTION ( 'NONE',  ( 1.000000000000000000, 0.000000000000000000, 0.000000000000000000 ) ) ;
#159 = EDGE_LOOP ( 'NONE', ( #145, #235, #265, #81 ) ) ;
#160 = COORDINATED_UNIVERSAL_TIME_OFFSET ( 9, 0, .AHEAD. ) ;
#161 = EDGE_CURVE ( 'NONE', #297, #268, #128, .T. ) ;
#162 = ORIENTED_EDGE ( 'NONE', *, *, #7, .F. ) ;
#163 = EDGE_LOOP ( 'NONE', ( #180, #35 ) ) ;
#164 = DIRECTION ( 'NONE',  ( 0.000000000000000000, 0.000000000000000000, 1.000000000000000000 ) ) ;
#165 = CARTESIAN_POINT ( 'NONE',  ( 0.000000000000000000, 0.000000000000000000, 0.000000000000000000 ) ) ;
#166 = VERTEX_POINT ( 'NONE', #19 ) ;
#167 = CIRCLE ( 'NONE', #18, 4.000000000000000000 ) ;
#168 = CARTESIAN_POINT ( 'NONE',  ( 0.000000000000000000, 0.000000000000000000, 22.00000000000000000 ) ) ;
#169 = CIRCLE ( 'NONE', #62, 1.500000000000000000 ) ;
#170 = CONICAL_SURFACE ( 'NONE', #104, 4.000000000000000000, 0.5235987755982992597 ) ;
#171 = LINE ( 'NONE', #93, #286 ) ;
#172 = APPROVAL ( #233, 'UNSPECIFIED' ) ;
#173 = CARTESIAN_POINT ( 'NONE',  ( 0.000000000000000000, 0.000000000000000000, 50.00000000000000000 ) ) ;
#174 = DIRECTION ( 'NONE',  ( 1.000000000000000000, 0.000000000000000000, 0.000000000000000000 ) ) ;
#175 = CONICAL_SURFACE ( 'NONE', #181, 4.000000000000000000, 0.5235987755982987046 ) ;
#176 = ORIENTED_EDGE ( 'NONE', *, *, #304, .F. ) ;
#177 = EDGE_CURVE ( 'NONE', #335, #142, #38, .T. ) ;
#178 = CARTESIAN_POINT ( 'NONE',  ( 0.000000000000000000, 0.000000000000000000, 25.00000000000000000 ) ) ;
#179 = FACE_OUTER_BOUND ( 'NONE', #291, .T. ) ;
#180 = ORIENTED_EDGE ( 'NONE', *, *, #66, .F. ) ;
#181 = AXIS2_PLACEMENT_3D ( 'NONE', #313, #282, #285 ) ;
#182 = DIRECTION ( 'NONE',  ( 0.000000000000000000, 0.000000000000000000, 1.000000000000000000 ) ) ;
#183 = DATE_AND_TIME ( #207, #52 ) ;
#184 = DIRECTION ( 'NONE',  ( 1.000000000000000000, 0.000000000000000000, 0.000000000000000000 ) ) ;
#185 = VERTEX_POINT ( 'NONE', #90 ) ;
#186 = PERSON_AND_ORGANIZATION_ROLE ( 'creator' ) ;
#187 = ADVANCED_FACE ( 'NONE', ( #25 ), #308, .T. ) ;
#188 = APPLICATION_PROTOCOL_DEFINITION ( 'international standard', 'config_control_design', 1994, #281 ) ;
#189 = AXIS2_PLACEMENT_3D ( 'NONE', #284, #39, #113 ) ;
#190 = ORIENTED_EDGE ( 'NONE', *, *, #280, .F. ) ;
#191 = LINE ( 'NONE', #305, #37 ) ;
#192 = EDGE_LOOP ( 'NONE', ( #112, #252, #131, #277 ) ) ;
#193 = APPROVAL_ROLE ( '' ) ;
#194 = CYLINDRICAL_SURFACE ( 'NONE', #85, 4.000000000000000000 ) ;
#195 = SECURITY_CLASSIFICATION ( '', '', #83 ) ;
#196 = CIRCLE ( 'NONE', #23, 4.000000000000000000 ) ;
#197 = EDGE_CURVE ( 'NONE', #53, #185, #261, .T. ) ;
#198 = CARTESIAN_POINT ( 'NONE',  ( 0.000000000000000000, 0.000000000000000000, 50.00000000000000000 ) ) ;
#199 = PLANE ( 'NONE',  #327 ) ;
#200 = LINE ( 'NONE', #44, #220 ) ;
#201 = CONICAL_SURFACE ( 'NONE', #96, 4.000000000000000000, 0.5235987755982987046 ) ;
#202 = PRODUCT_RELATED_PRODUCT_CATEGORY ( 'detail', '', ( #20 ) ) ;
#203 = DIRECTION ( 'NONE',  ( 1.000000000000000000, 0.000000000000000000, 0.000000000000000000 ) ) ;
#204 = AXIS2_PLACEMENT_3D ( 'NONE', #198, #69, #88 ) ;
#205 = FACE_OUTER_BOUND ( 'NONE', #244, .T. ) ;
#206 = ORIENTED_EDGE ( 'NONE', *, *, #161, .T. ) ;
#207 = CALENDAR_DATE ( 2021, 25, 10 ) ;
#208 = EDGE_CURVE ( 'NONE', #267, #323, #171, .T. ) ;
#209 = CARTESIAN_POINT ( 'NONE',  ( 0.000000000000000000, 0.000000000000000000, 19.00000000000000000 ) ) ;
#210 =( LENGTH_UNIT ( ) NAMED_UNIT ( * ) SI_UNIT ( .MILLI., .METRE. ) );
#211 = CARTESIAN_POINT ( 'NONE',  ( 0.000000000000000000, 0.000000000000000000, 22.00000000000000000 ) ) ;
#212 = ORIENTED_EDGE ( 'NONE', *, *, #149, .T. ) ;
#213 = AXIS2_PLACEMENT_3D ( 'NONE', #144, #249, #64 ) ;
#214 = CIRCLE ( 'NONE', #10, 2.845299461620744985 ) ;
#215 = EDGE_LOOP ( 'NONE', ( #253, #325 ) ) ;
#216 = DIRECTION ( 'NONE',  ( 1.000000000000000000, 0.000000000000000000, 0.000000000000000000 ) ) ;
#217 = APPROVAL_ROLE ( '' ) ;
#218 = CALENDAR_DATE ( 2021, 25, 10 ) ;
#219 = DIRECTION ( 'NONE',  ( 0.000000000000000000, 0.000000000000000000, 1.000000000000000000 ) ) ;
#220 = VECTOR ( 'NONE', #118, 1000.000000000000114 ) ;
#221 = VECTOR ( 'NONE', #94, 1000.000000000000000 ) ;
#222 = EDGE_CURVE ( 'NONE', #4, #267, #275, .T. ) ;
#223 = EDGE_CURVE ( 'NONE', #142, #335, #320, .T. ) ;
#224 = CARTESIAN_POINT ( 'NONE',  ( 0.000000000000000000, 0.000000000000000000, 2.000000000000000000 ) ) ;
#225 = APPROVAL_PERSON_ORGANIZATION ( #12, #42, #193 ) ;
#226 = CC_DESIGN_PERSON_AND_ORGANIZATION_ASSIGNMENT ( #100, #1, ( #338 ) ) ;
#227 = ADVANCED_FACE ( 'NONE', ( #319 ), #170, .T. ) ;
#228 = CARTESIAN_POINT ( 'NONE',  ( 0.000000000000000000, 0.000000000000000000, 25.00000000000000000 ) ) ;
#229 = CARTESIAN_POINT ( 'NONE',  ( 1.500000000000000000, 0.000000000000000000, 25.00000000000000000 ) ) ;
#230 = DIRECTION ( 'NONE',  ( 1.000000000000000000, 0.000000000000000000, 0.000000000000000000 ) ) ;
#231 = DIRECTION ( 'NONE',  ( 1.000000000000000000, 0.000000000000000000, 0.000000000000000000 ) ) ;
#232 = EDGE_CURVE ( 'NONE', #241, #267, #98, .T. ) ;
#233 = APPROVAL_STATUS ( 'not_yet_approved' ) ;
#234 = AXIS2_PLACEMENT_3D ( 'NONE', #165, #164, #269 ) ;
#235 = ORIENTED_EDGE ( 'NONE', *, *, #352, .T. ) ;
#236 = PERSON_AND_ORGANIZATION_ROLE ( 'creator' ) ;
#237 = ADVANCED_FACE ( 'NONE', ( #345 ), #201, .T. ) ;
#238 = ADVANCED_FACE ( 'NONE', ( #205 ), #355, .T. ) ;
#239 = EDGE_LOOP ( 'NONE', ( #248, #5, #212, #33 ) ) ;
#240 = MECHANICAL_CONTEXT ( 'NONE', #91, 'mechanical' ) ;
#241 = VERTEX_POINT ( 'NONE', #24 ) ;
#242 = DATE_AND_TIME ( #135, #294 ) ;
#243 = CARTESIAN_POINT ( 'NONE',  ( 1.500000000000000000, 0.000000000000000000, 19.00000000000000000 ) ) ;
#244 = EDGE_LOOP ( 'NONE', ( #299, #295 ) ) ;
#245 = PERSON_AND_ORGANIZATION ( #132, #136 ) ;
#246 = ORIENTED_EDGE ( 'NONE', *, *, #309, .T. ) ;
#247 = UNCERTAINTY_MEASURE_WITH_UNIT (LENGTH_MEASURE( 1.000000000000000082E-05 ), #210, 'distance_accuracy_value', 'NONE');
#248 = ORIENTED_EDGE ( 'NONE', *, *, #334, .F. ) ;
#249 = DIRECTION ( 'NONE',  ( 0.000000000000000000, 0.000000000000000000, 1.000000000000000000 ) ) ;
#250 =( NAMED_UNIT ( * ) PLANE_ANGLE_UNIT ( ) SI_UNIT ( $, .RADIAN. ) );
#251 = AXIS2_PLACEMENT_3D ( 'NONE', #211, #8, #216 ) ;
#252 = ORIENTED_EDGE ( 'NONE', *, *, #208, .T. ) ;
#253 = ORIENTED_EDGE ( 'NONE', *, *, #197, .T. ) ;
#254 = CARTESIAN_POINT ( 'NONE',  ( 0.000000000000000000, 0.000000000000000000, 19.00000000000000000 ) ) ;
#255 = DIRECTION ( 'NONE',  ( 0.000000000000000000, 0.000000000000000000, 1.000000000000000000 ) ) ;
#256 = DIRECTION ( 'NONE',  ( 1.000000000000000000, 0.000000000000000000, 0.000000000000000000 ) ) ;
#257 = ADVANCED_FACE ( 'NONE', ( #179 ), #175, .T. ) ;
#258 = CARTESIAN_POINT ( 'NONE',  ( 0.000000000000000000, 0.000000000000000000, 22.00000000000000000 ) ) ;
#259 = DIRECTION ( 'NONE',  ( 0.000000000000000000, 0.000000000000000000, -1.000000000000000000 ) ) ;
#260 = DIRECTION ( 'NONE',  ( 0.000000000000000000, 0.000000000000000000, 1.000000000000000000 ) ) ;
#261 = CIRCLE ( 'NONE', #189, 2.267949192431115257 ) ;
#262 = ORIENTED_EDGE ( 'NONE', *, *, #208, .F. ) ;
#263 = ORIENTED_EDGE ( 'NONE', *, *, #7, .T. ) ;
#264 = PERSON_AND_ORGANIZATION ( #132, #136 ) ;
#265 = ORIENTED_EDGE ( 'NONE', *, *, #280, .T. ) ;
#266 = DIRECTION ( 'NONE',  ( 0.000000000000000000, 0.000000000000000000, 1.000000000000000000 ) ) ;
#267 = VERTEX_POINT ( 'NONE', #26 ) ;
#268 = VERTEX_POINT ( 'NONE', #229 ) ;
#269 = DIRECTION ( 'NONE',  ( 1.000000000000000000, 0.000000000000000000, 0.000000000000000000 ) ) ;
#270 = PRODUCT_DEFINITION ( 'UNKNOWN', '', #338, #333 ) ;
#271 = PERSON_AND_ORGANIZATION ( #132, #136 ) ;
#272 = CC_DESIGN_APPROVAL ( #172, ( #195 ) ) ;
#273 = CARTESIAN_POINT ( 'NONE',  ( 0.000000000000000000, 0.000000000000000000, 50.00000000000000000 ) ) ;
#274 = FACE_OUTER_BOUND ( 'NONE', #215, .T. ) ;
#275 = CIRCLE ( 'NONE', #302, 4.000000000000000000 ) ;
#276 = EDGE_LOOP ( 'NONE', ( #138, #303, #110, #101 ) ) ;
#277 = ORIENTED_EDGE ( 'NONE', *, *, #309, .F. ) ;
#278 = CC_DESIGN_APPROVAL ( #42, ( #270 ) ) ;
#279 = CARTESIAN_POINT ( 'NONE',  ( 0.000000000000000000, 0.000000000000000000, 0.000000000000000000 ) ) ;
#280 = EDGE_CURVE ( 'NONE', #32, #4, #27, .T. ) ;
#281 = APPLICATION_CONTEXT ( 'configuration controlled 3d designs of mechanical parts and assemblies' ) ;
#282 = DIRECTION ( 'NONE',  ( 0.000000000000000000, 0.000000000000000000, 1.000000000000000000 ) ) ;
#283 = DIRECTION ( 'NONE',  ( 0.000000000000000000, 0.000000000000000000, 1.000000000000000000 ) ) ;
#284 = CARTESIAN_POINT ( 'NONE',  ( 0.000000000000000000, 0.000000000000000000, 25.00000000000000000 ) ) ;
#285 = DIRECTION ( 'NONE',  ( 1.000000000000000000, 0.000000000000000000, 0.000000000000000000 ) ) ;
#286 = VECTOR ( 'NONE', #260, 1000.000000000000000 ) ;
#287 = DIRECTION ( 'NONE',  ( 1.000000000000000000, 0.000000000000000000, 0.000000000000000000 ) ) ;
#288 = SHAPE_DEFINITION_REPRESENTATION ( #82, #344 ) ;
#289 = CC_DESIGN_PERSON_AND_ORGANIZATION_ASSIGNMENT ( #264, #186, ( #338 ) ) ;
#290 = LINE ( 'NONE', #155, #15 ) ;
#291 = EDGE_LOOP ( 'NONE', ( #58, #31, #147, #190 ) ) ;
#292 = DATE_AND_TIME ( #102, #310 ) ;
#293 = APPROVAL_STATUS ( 'not_yet_approved' ) ;
#294 = LOCAL_TIME ( 8, 59, 9.000000000000000000, #331 ) ;
#295 = ORIENTED_EDGE ( 'NONE', *, *, #177, .T. ) ;
#296 = PERSON_AND_ORGANIZATION ( #132, #136 ) ;
#297 = VERTEX_POINT ( 'NONE', #124 ) ;
#298 = PERSON_AND_ORGANIZATION ( #132, #136 ) ;
#299 = ORIENTED_EDGE ( 'NONE', *, *, #223, .T. ) ;
#300 = EDGE_CURVE ( 'NONE', #166, #323, #196, .T. ) ;
#301 = CC_DESIGN_APPROVAL ( #321, ( #338 ) ) ;
#302 = AXIS2_PLACEMENT_3D ( 'NONE', #67, #283, #21 ) ;
#303 = ORIENTED_EDGE ( 'NONE', *, *, #334, .T. ) ;
#304 = EDGE_CURVE ( 'NONE', #335, #297, #290, .T. ) ;
#305 = CARTESIAN_POINT ( 'NONE',  ( 4.000000000000000000, 0.000000000000000000, 50.00000000000000000 ) ) ;
#306 = DIRECTION ( 'NONE',  ( 0.000000000000000000, 0.000000000000000000, 1.000000000000000000 ) ) ;
#307 = DIRECTION ( 'NONE',  ( 0.000000000000000000, 0.000000000000000000, -1.000000000000000000 ) ) ;
#308 = CONICAL_SURFACE ( 'NONE', #343, 4.000000000000000000, 0.5235987755982992597 ) ;
#309 = EDGE_CURVE ( 'NONE', #4, #166, #191, .T. ) ;
#310 = LOCAL_TIME ( 8, 59, 9.000000000000000000, #328 ) ;
#311 = FACE_OUTER_BOUND ( 'NONE', #57, .T. ) ;
#312 = CARTESIAN_POINT ( 'NONE',  ( 0.000000000000000000, 0.000000000000000000, 22.00000000000000000 ) ) ;
#313 = CARTESIAN_POINT ( 'NONE',  ( 0.000000000000000000, 0.000000000000000000, 2.000000000000000000 ) ) ;
#314 = ADVANCED_FACE ( 'NONE', ( #322, #274 ), #87, .F. ) ;
#315 = DIRECTION ( 'NONE',  ( 0.5000000000000003331, 6.123233995736769734E-17, -0.8660254037844383745 ) ) ;
#316 = DIRECTION ( 'NONE',  ( 0.000000000000000000, 0.000000000000000000, -1.000000000000000000 ) ) ;
#317 = CYLINDRICAL_SURFACE ( 'NONE', #51, 4.000000000000000000 ) ;
#318 = VECTOR ( 'NONE', #122, 1000.000000000000000 ) ;
#319 = FACE_OUTER_BOUND ( 'NONE', #276, .T. ) ;
#320 = CIRCLE ( 'NONE', #40, 1.500000000000000000 ) ;
#321 = APPROVAL ( #30, 'UNSPECIFIED' ) ;
#322 = FACE_BOUND ( 'NONE', #13, .T. ) ;
#323 = VERTEX_POINT ( 'NONE', #49 ) ;
#324 = PERSON_AND_ORGANIZATION ( #132, #136 ) ;
#325 = ORIENTED_EDGE ( 'NONE', *, *, #16, .T. ) ;
#326 = CARTESIAN_POINT ( 'NONE',  ( 0.000000000000000000, 0.000000000000000000, 0.000000000000000000 ) ) ;
#327 = AXIS2_PLACEMENT_3D ( 'NONE', #326, #354, #158 ) ;
#328 = COORDINATED_UNIVERSAL_TIME_OFFSET ( 9, 0, .AHEAD. ) ;
#329 = DIRECTION ( 'NONE',  ( 0.000000000000000000, 0.000000000000000000, 1.000000000000000000 ) ) ;
#330 = CARTESIAN_POINT ( 'NONE',  ( 4.000000000000000000, 0.000000000000000000, 2.000000000000000000 ) ) ;
#331 = COORDINATED_UNIVERSAL_TIME_OFFSET ( 9, 0, .AHEAD. ) ;
#332 = DIRECTION ( 'NONE',  ( 1.000000000000000000, 0.000000000000000000, 0.000000000000000000 ) ) ;
#333 = DESIGN_CONTEXT ( 'detailed design', #281, 'design' ) ;
#334 = EDGE_CURVE ( 'NONE', #185, #166, #74, .T. ) ;
#335 = VERTEX_POINT ( 'NONE', #143 ) ;
#336 = CC_DESIGN_PERSON_AND_ORGANIZATION_ASSIGNMENT ( #296, #54, ( #20 ) ) ;
#337 = DIRECTION ( 'NONE',  ( -1.000000000000000000, 0.000000000000000000, 0.000000000000000000 ) ) ;
#338 = PRODUCT_DEFINITION_FORMATION_WITH_SPECIFIED_SOURCE ( 'ANY', '', #20, .NOT_KNOWN. ) ;
#339 = EDGE_CURVE ( 'NONE', #267, #4, #167, .T. ) ;
#340 = ORIENTED_EDGE ( 'NONE', *, *, #140, .F. ) ;
#341 = ORIENTED_EDGE ( 'NONE', *, *, #177, .F. ) ;
#342 = DIRECTION ( 'NONE',  ( 0.000000000000000000, 0.000000000000000000, 1.000000000000000000 ) ) ;
#343 = AXIS2_PLACEMENT_3D ( 'NONE', #312, #307, #337 ) ;
#344 = ADVANCED_BREP_SHAPE_REPRESENTATION ( 'bj720-08001', ( #150, #234 ), #121 ) ;
#345 = FACE_OUTER_BOUND ( 'NONE', #159, .T. ) ;
#346 = CYLINDRICAL_SURFACE ( 'NONE', #204, 1.500000000000000000 ) ;
#347 = FACE_OUTER_BOUND ( 'NONE', #79, .T. ) ;
#348 = CC_DESIGN_DATE_AND_TIME_ASSIGNMENT ( #292, #106, ( #270 ) ) ;
#349 = DIRECTION ( 'NONE',  ( 1.000000000000000000, 0.000000000000000000, 0.000000000000000000 ) ) ;
#350 = CARTESIAN_POINT ( 'NONE',  ( 4.000000000000000000, 0.000000000000000000, 2.000000000000000000 ) ) ;
#351 = APPROVAL_DATE_TIME ( #183, #172 ) ;
#352 = EDGE_CURVE ( 'NONE', #241, #32, #214, .T. ) ;
#353 = DIRECTION ( 'NONE',  ( -1.000000000000000000, 0.000000000000000000, 0.000000000000000000 ) ) ;
#354 = DIRECTION ( 'NONE',  ( 0.000000000000000000, 0.000000000000000000, 1.000000000000000000 ) ) ;
#355 = PLANE ( 'NONE',  #157 ) ;
ENDSEC;
END-ISO-10303-21;
