ISO-10303-21;
HEADER;
FILE_DESCRIPTION (( 'STEP AP203' ),
    '1' );
FILE_NAME ('bj623-16004.STEP',
    '2021-10-24T23:57:50',
    ( '' ),
    ( '' ),
    'SwSTEP 2.0',
    'SolidWorks 2020',
    '' );
FILE_SCHEMA (( 'CONFIG_CONTROL_DESIGN' ));
ENDSEC;

DATA;
#1 = COORDINATED_UNIVERSAL_TIME_OFFSET ( 9, 0, .AHEAD. ) ;
#2 = EDGE_CURVE ( 'NONE', #226, #109, #235, .T. ) ;
#3 = ORIENTED_EDGE ( 'NONE', *, *, #205, .T. ) ;
#4 = LOCAL_TIME ( 8, 57, 50.00000000000000000, #46 ) ;
#5 = CC_DESIGN_PERSON_AND_ORGANIZATION_ASSIGNMENT ( #233, #173, ( #31 ) ) ;
#6 = DIRECTION ( 'NONE',  ( 0.000000000000000000, 0.000000000000000000, 1.000000000000000000 ) ) ;
#7 = DIRECTION ( 'NONE',  ( -1.000000000000000000, 0.000000000000000000, 0.000000000000000000 ) ) ;
#8 = APPROVAL_ROLE ( '' ) ;
#9 = APPROVAL_DATE_TIME ( #152, #191 ) ;
#10 = CARTESIAN_POINT ( 'NONE',  ( 8.500000000000000000, 1.040949779275250140E-15, 10.00000000000000000 ) ) ;
#11 = DIRECTION ( 'NONE',  ( 0.000000000000000000, 0.000000000000000000, -1.000000000000000000 ) ) ;
#12 = DIRECTION ( 'NONE',  ( 0.000000000000000000, 0.000000000000000000, -1.000000000000000000 ) ) ;
#13 = ORIENTED_EDGE ( 'NONE', *, *, #240, .T. ) ;
#14 = APPROVAL_STATUS ( 'not_yet_approved' ) ;
#15 = DIRECTION ( 'NONE',  ( 0.000000000000000000, 0.000000000000000000, -1.000000000000000000 ) ) ;
#16 = LINE ( 'NONE', #27, #166 ) ;
#17 = CIRCLE ( 'NONE', #108, 30.00000000000000000 ) ;
#18 = DATE_AND_TIME ( #239, #170 ) ;
#19 = PLANE ( 'NONE',  #90 ) ;
#20 = DIRECTION ( 'NONE',  ( 1.000000000000000000, 0.000000000000000000, 0.000000000000000000 ) ) ;
#21 = LINE ( 'NONE', #237, #143 ) ;
#22 = DIRECTION ( 'NONE',  ( 1.000000000000000000, 0.000000000000000000, 0.000000000000000000 ) ) ;
#23 = APPLICATION_PROTOCOL_DEFINITION ( 'international standard', 'config_control_design', 1994, #87 ) ;
#24 = CARTESIAN_POINT ( 'NONE',  ( 0.000000000000000000, 0.000000000000000000, 10.00000000000000000 ) ) ;
#25 = EDGE_CURVE ( 'NONE', #109, #135, #34, .T. ) ;
#26 = EDGE_CURVE ( 'NONE', #220, #120, #206, .T. ) ;
#27 = CARTESIAN_POINT ( 'NONE',  ( -30.00000000000000000, 0.000000000000000000, 10.00000000000000000 ) ) ;
#28 = DIRECTION ( 'NONE',  ( -1.000000000000000000, 0.000000000000000000, 0.000000000000000000 ) ) ;
#29 = CLOSED_SHELL ( 'NONE', ( #70, #112, #147, #214, #35, #126 ) ) ;
#30 = CARTESIAN_POINT ( 'NONE',  ( 0.000000000000000000, 0.000000000000000000, 10.00000000000000000 ) ) ;
#31 = PRODUCT_DEFINITION_FORMATION_WITH_SPECIFIED_SOURCE ( 'ANY', '', #100, .NOT_KNOWN. ) ;
#32 = ORIENTED_EDGE ( 'NONE', *, *, #86, .F. ) ;
#33 = APPROVAL ( #131, 'UNSPECIFIED' ) ;
#34 = CIRCLE ( 'NONE', #38, 8.500000000000000000 ) ;
#35 = ADVANCED_FACE ( 'NONE', ( #241 ), #210, .T. ) ;
#36 = AXIS2_PLACEMENT_3D ( 'NONE', #24, #15, #28 ) ;
#37 = PERSON_AND_ORGANIZATION_ROLE ( 'classification_officer' ) ;
#38 = AXIS2_PLACEMENT_3D ( 'NONE', #208, #41, #103 ) ;
#39 = FACE_OUTER_BOUND ( 'NONE', #247, .T. ) ;
#40 = CARTESIAN_POINT ( 'NONE',  ( 0.000000000000000000, 0.000000000000000000, 0.000000000000000000 ) ) ;
#41 = DIRECTION ( 'NONE',  ( 0.000000000000000000, 0.000000000000000000, 1.000000000000000000 ) ) ;
#42 = COORDINATED_UNIVERSAL_TIME_OFFSET ( 9, 0, .AHEAD. ) ;
#43 = ORGANIZATION ( 'UNSPECIFIED', 'UNSPECIFIED', '' ) ;
#44 = DIRECTION ( 'NONE',  ( 1.000000000000000000, 0.000000000000000000, 0.000000000000000000 ) ) ;
#45 = EDGE_CURVE ( 'NONE', #246, #190, #196, .T. ) ;
#46 = COORDINATED_UNIVERSAL_TIME_OFFSET ( 9, 0, .AHEAD. ) ;
#47 = AXIS2_PLACEMENT_3D ( 'NONE', #107, #157, #64 ) ;
#48 = LOCAL_TIME ( 8, 57, 50.00000000000000000, #1 ) ;
#49 = ORIENTED_EDGE ( 'NONE', *, *, #69, .F. ) ;
#50 = LINE ( 'NONE', #88, #231 ) ;
#51 = CARTESIAN_POINT ( 'NONE',  ( 30.00000000000000000, 3.673940397442059178E-15, 10.00000000000000000 ) ) ;
#52 =( LENGTH_UNIT ( ) NAMED_UNIT ( * ) SI_UNIT ( .MILLI., .METRE. ) );
#53 = APPROVAL_DATE_TIME ( #217, #174 ) ;
#54 = DIRECTION ( 'NONE',  ( 0.000000000000000000, 0.000000000000000000, 1.000000000000000000 ) ) ;
#55 = DIRECTION ( 'NONE',  ( 0.000000000000000000, 0.000000000000000000, -1.000000000000000000 ) ) ;
#56 = APPROVAL_ROLE ( '' ) ;
#57 = FACE_BOUND ( 'NONE', #172, .T. ) ;
#58 = CC_DESIGN_DATE_AND_TIME_ASSIGNMENT ( #18, #215, ( #121 ) ) ;
#59 = APPROVAL_PERSON_ORGANIZATION ( #212, #191, #8 ) ;
#60 = DIRECTION ( 'NONE',  ( 0.000000000000000000, 0.000000000000000000, -1.000000000000000000 ) ) ;
#61 = ADVANCED_BREP_SHAPE_REPRESENTATION ( 'bj623-16004', ( #91, #194 ), #124 ) ;
#62 = DIRECTION ( 'NONE',  ( 0.000000000000000000, 0.000000000000000000, 1.000000000000000000 ) ) ;
#63 = PERSON_AND_ORGANIZATION_ROLE ( 'design_owner' ) ;
#64 = DIRECTION ( 'NONE',  ( 1.000000000000000000, 0.000000000000000000, 0.000000000000000000 ) ) ;
#65 = ORIENTED_EDGE ( 'NONE', *, *, #89, .T. ) ;
#66 = CC_DESIGN_APPROVAL ( #174, ( #200 ) ) ;
#67 = EDGE_LOOP ( 'NONE', ( #122, #65, #81, #138 ) ) ;
#68 = DIRECTION ( 'NONE',  ( 0.000000000000000000, 0.000000000000000000, -1.000000000000000000 ) ) ;
#69 = EDGE_CURVE ( 'NONE', #226, #102, #238, .T. ) ;
#70 = ADVANCED_FACE ( 'NONE', ( #213 ), #159, .F. ) ;
#71 = CARTESIAN_POINT ( 'NONE',  ( 8.500000000000000000, 1.040949779275250140E-15, 0.000000000000000000 ) ) ;
#72 = APPLICATION_CONTEXT ( 'configuration controlled 3d designs of mechanical parts and assemblies' ) ;
#73 = SHAPE_DEFINITION_REPRESENTATION ( #153, #61 ) ;
#74 = AXIS2_PLACEMENT_3D ( 'NONE', #177, #6, #44 ) ;
#75 = DIRECTION ( 'NONE',  ( 0.000000000000000000, 0.000000000000000000, 1.000000000000000000 ) ) ;
#76 = PERSON_AND_ORGANIZATION ( #82, #43 ) ;
#77 = DIRECTION ( 'NONE',  ( 0.000000000000000000, 0.000000000000000000, -1.000000000000000000 ) ) ;
#78 = COORDINATED_UNIVERSAL_TIME_OFFSET ( 9, 0, .AHEAD. ) ;
#79 = CARTESIAN_POINT ( 'NONE',  ( 0.000000000000000000, 0.000000000000000000, 0.000000000000000000 ) ) ;
#80 = PERSON_AND_ORGANIZATION ( #82, #43 ) ;
#81 = ORIENTED_EDGE ( 'NONE', *, *, #86, .T. ) ;
#82 = PERSON ( 'UNSPECIFIED', 'UNSPECIFIED', 'UNSPECIFIED', ('UNSPECIFIED'), ('UNSPECIFIED'), ('UNSPECIFIED') ) ;
#83 = CARTESIAN_POINT ( 'NONE',  ( -30.00000000000000000, 0.000000000000000000, 10.00000000000000000 ) ) ;
#84 = DIRECTION ( 'NONE',  ( 0.000000000000000000, 0.000000000000000000, 1.000000000000000000 ) ) ;
#85 = EDGE_LOOP ( 'NONE', ( #162, #3 ) ) ;
#86 = EDGE_CURVE ( 'NONE', #190, #246, #225, .T. ) ;
#87 = APPLICATION_CONTEXT ( 'configuration controlled 3d designs of mechanical parts and assemblies' ) ;
#88 = CARTESIAN_POINT ( 'NONE',  ( 8.500000000000000000, 1.040949779275250140E-15, 10.00000000000000000 ) ) ;
#89 = EDGE_CURVE ( 'NONE', #120, #190, #21, .T. ) ;
#90 = AXIS2_PLACEMENT_3D ( 'NONE', #95, #54, #201 ) ;
#91 = MANIFOLD_SOLID_BREP ( 'Imported1', #29 ) ;
#92 = DATE_AND_TIME ( #125, #161 ) ;
#93 = CC_DESIGN_PERSON_AND_ORGANIZATION_ASSIGNMENT ( #178, #113, ( #121 ) ) ;
#94 = PERSON_AND_ORGANIZATION_ROLE ( 'creator' ) ;
#95 = CARTESIAN_POINT ( 'NONE',  ( 0.000000000000000000, 0.000000000000000000, 0.000000000000000000 ) ) ;
#96 = DATE_AND_TIME ( #155, #198 ) ;
#97 = DESIGN_CONTEXT ( 'detailed design', #87, 'design' ) ;
#98 = CARTESIAN_POINT ( 'NONE',  ( -8.500000000000000000, 0.000000000000000000, 10.00000000000000000 ) ) ;
#99 = CALENDAR_DATE ( 2021, 25, 10 ) ;
#100 = PRODUCT ( 'bj623-16004', 'bj623-16004', '', ( #132 ) ) ;
#101 = CC_DESIGN_PERSON_AND_ORGANIZATION_ASSIGNMENT ( #207, #37, ( #200 ) ) ;
#102 = VERTEX_POINT ( 'NONE', #10 ) ;
#103 = DIRECTION ( 'NONE',  ( 1.000000000000000000, 0.000000000000000000, 0.000000000000000000 ) ) ;
#104 = AXIS2_PLACEMENT_3D ( 'NONE', #185, #136, #22 ) ;
#105 = ORIENTED_EDGE ( 'NONE', *, *, #2, .F. ) ;
#106 = CARTESIAN_POINT ( 'NONE',  ( 0.000000000000000000, 0.000000000000000000, 10.00000000000000000 ) ) ;
#107 = CARTESIAN_POINT ( 'NONE',  ( 0.000000000000000000, 0.000000000000000000, 0.000000000000000000 ) ) ;
#108 = AXIS2_PLACEMENT_3D ( 'NONE', #130, #115, #117 ) ;
#109 = VERTEX_POINT ( 'NONE', #116 ) ;
#110 =( NAMED_UNIT ( * ) SI_UNIT ( $, .STERADIAN. ) SOLID_ANGLE_UNIT ( ) );
#111 = APPLICATION_PROTOCOL_DEFINITION ( 'international standard', 'config_control_design', 1994, #72 ) ;
#112 = ADVANCED_FACE ( 'NONE', ( #134 ), #216, .T. ) ;
#113 = PERSON_AND_ORGANIZATION_ROLE ( 'creator' ) ;
#114 = FACE_BOUND ( 'NONE', #202, .T. ) ;
#115 = DIRECTION ( 'NONE',  ( 0.000000000000000000, 0.000000000000000000, 1.000000000000000000 ) ) ;
#116 = CARTESIAN_POINT ( 'NONE',  ( -8.500000000000000000, 0.000000000000000000, 0.000000000000000000 ) ) ;
#117 = DIRECTION ( 'NONE',  ( 1.000000000000000000, 0.000000000000000000, 0.000000000000000000 ) ) ;
#118 = AXIS2_PLACEMENT_3D ( 'NONE', #30, #245, #145 ) ;
#119 = ORIENTED_EDGE ( 'NONE', *, *, #89, .F. ) ;
#120 = VERTEX_POINT ( 'NONE', #51 ) ;
#121 = PRODUCT_DEFINITION ( 'UNKNOWN', '', #31, #97 ) ;
#122 = ORIENTED_EDGE ( 'NONE', *, *, #205, .F. ) ;
#123 = PRODUCT_RELATED_PRODUCT_CATEGORY ( 'detail', '', ( #100 ) ) ;
#124 =( GEOMETRIC_REPRESENTATION_CONTEXT ( 3 ) GLOBAL_UNCERTAINTY_ASSIGNED_CONTEXT ( ( #149 ) ) GLOBAL_UNIT_ASSIGNED_CONTEXT ( ( #52, #163, #110 ) ) REPRESENTATION_CONTEXT ( 'NONE', 'WORKASPACE' ) );
#125 = CALENDAR_DATE ( 2021, 25, 10 ) ;
#126 = ADVANCED_FACE ( 'NONE', ( #227 ), #146, .F. ) ;
#127 = VECTOR ( 'NONE', #189, 1000.000000000000000 ) ;
#128 = ORIENTED_EDGE ( 'NONE', *, *, #25, .F. ) ;
#129 = SECURITY_CLASSIFICATION_LEVEL ( 'unclassified' ) ;
#130 = CARTESIAN_POINT ( 'NONE',  ( 0.000000000000000000, 0.000000000000000000, 10.00000000000000000 ) ) ;
#131 = APPROVAL_STATUS ( 'not_yet_approved' ) ;
#132 = MECHANICAL_CONTEXT ( 'NONE', #72, 'mechanical' ) ;
#133 = EDGE_CURVE ( 'NONE', #220, #246, #16, .T. ) ;
#134 = FACE_OUTER_BOUND ( 'NONE', #67, .T. ) ;
#135 = VERTEX_POINT ( 'NONE', #71 ) ;
#136 = DIRECTION ( 'NONE',  ( 0.000000000000000000, 0.000000000000000000, 1.000000000000000000 ) ) ;
#137 = EDGE_LOOP ( 'NONE', ( #119, #199, #228, #164 ) ) ;
#138 = ORIENTED_EDGE ( 'NONE', *, *, #133, .F. ) ;
#139 = DIRECTION ( 'NONE',  ( -1.000000000000000000, 0.000000000000000000, 0.000000000000000000 ) ) ;
#140 = CARTESIAN_POINT ( 'NONE',  ( -8.500000000000000000, 0.000000000000000000, 10.00000000000000000 ) ) ;
#141 = ORIENTED_EDGE ( 'NONE', *, *, #25, .T. ) ;
#142 = PERSON_AND_ORGANIZATION ( #82, #43 ) ;
#143 = VECTOR ( 'NONE', #60, 1000.000000000000000 ) ;
#144 = CALENDAR_DATE ( 2021, 25, 10 ) ;
#145 = DIRECTION ( 'NONE',  ( 1.000000000000000000, 0.000000000000000000, 0.000000000000000000 ) ) ;
#146 = CYLINDRICAL_SURFACE ( 'NONE', #221, 8.500000000000000000 ) ;
#147 = ADVANCED_FACE ( 'NONE', ( #148, #57 ), #169, .T. ) ;
#148 = FACE_OUTER_BOUND ( 'NONE', #85, .T. ) ;
#149 = UNCERTAINTY_MEASURE_WITH_UNIT (LENGTH_MEASURE( 1.000000000000000082E-05 ), #52, 'distance_accuracy_value', 'NONE');
#150 = EDGE_LOOP ( 'NONE', ( #186, #219, #128, #105 ) ) ;
#151 = APPROVAL_PERSON_ORGANIZATION ( #142, #174, #56 ) ;
#152 = DATE_AND_TIME ( #99, #4 ) ;
#153 = PRODUCT_DEFINITION_SHAPE ( 'NONE', 'NONE',  #121 ) ;
#154 = DIRECTION ( 'NONE',  ( 1.000000000000000000, 0.000000000000000000, 0.000000000000000000 ) ) ;
#155 = CALENDAR_DATE ( 2021, 25, 10 ) ;
#156 = APPROVAL_STATUS ( 'not_yet_approved' ) ;
#157 = DIRECTION ( 'NONE',  ( 0.000000000000000000, 0.000000000000000000, 1.000000000000000000 ) ) ;
#158 = ORIENTED_EDGE ( 'NONE', *, *, #240, .F. ) ;
#159 = CYLINDRICAL_SURFACE ( 'NONE', #242, 8.500000000000000000 ) ;
#160 = CIRCLE ( 'NONE', #47, 8.500000000000000000 ) ;
#161 = LOCAL_TIME ( 8, 57, 50.00000000000000000, #193 ) ;
#162 = ORIENTED_EDGE ( 'NONE', *, *, #26, .T. ) ;
#163 =( NAMED_UNIT ( * ) PLANE_ANGLE_UNIT ( ) SI_UNIT ( $, .RADIAN. ) );
#164 = ORIENTED_EDGE ( 'NONE', *, *, #45, .T. ) ;
#165 = CC_DESIGN_PERSON_AND_ORGANIZATION_ASSIGNMENT ( #80, #94, ( #31 ) ) ;
#166 = VECTOR ( 'NONE', #68, 1000.000000000000000 ) ;
#167 = AXIS2_PLACEMENT_3D ( 'NONE', #184, #11, #7 ) ;
#168 = CC_DESIGN_PERSON_AND_ORGANIZATION_ASSIGNMENT ( #76, #63, ( #100 ) ) ;
#169 = PLANE ( 'NONE',  #197 ) ;
#170 = LOCAL_TIME ( 8, 57, 50.00000000000000000, #78 ) ;
#171 = CARTESIAN_POINT ( 'NONE',  ( 0.000000000000000000, 0.000000000000000000, 0.000000000000000000 ) ) ;
#172 = EDGE_LOOP ( 'NONE', ( #49, #158 ) ) ;
#173 = PERSON_AND_ORGANIZATION_ROLE ( 'design_supplier' ) ;
#174 = APPROVAL ( #14, 'UNSPECIFIED' ) ;
#175 = APPROVAL_PERSON_ORGANIZATION ( #180, #33, #209 ) ;
#176 = DIRECTION ( 'NONE',  ( 0.000000000000000000, 0.000000000000000000, 1.000000000000000000 ) ) ;
#177 = CARTESIAN_POINT ( 'NONE',  ( 0.000000000000000000, 0.000000000000000000, 10.00000000000000000 ) ) ;
#178 = PERSON_AND_ORGANIZATION ( #82, #43 ) ;
#179 = AXIS2_PLACEMENT_3D ( 'NONE', #40, #75, #154 ) ;
#180 = PERSON_AND_ORGANIZATION ( #82, #43 ) ;
#181 = CARTESIAN_POINT ( 'NONE',  ( 0.000000000000000000, 0.000000000000000000, 10.00000000000000000 ) ) ;
#182 = APPROVAL_DATE_TIME ( #96, #33 ) ;
#183 = DIRECTION ( 'NONE',  ( -1.000000000000000000, 0.000000000000000000, 0.000000000000000000 ) ) ;
#184 = CARTESIAN_POINT ( 'NONE',  ( 0.000000000000000000, 0.000000000000000000, 10.00000000000000000 ) ) ;
#185 = CARTESIAN_POINT ( 'NONE',  ( 0.000000000000000000, 0.000000000000000000, 10.00000000000000000 ) ) ;
#186 = ORIENTED_EDGE ( 'NONE', *, *, #69, .T. ) ;
#187 = CC_DESIGN_APPROVAL ( #191, ( #31 ) ) ;
#188 = ORIENTED_EDGE ( 'NONE', *, *, #244, .F. ) ;
#189 = DIRECTION ( 'NONE',  ( 0.000000000000000000, 0.000000000000000000, -1.000000000000000000 ) ) ;
#190 = VERTEX_POINT ( 'NONE', #236 ) ;
#191 = APPROVAL ( #156, 'UNSPECIFIED' ) ;
#192 = ORIENTED_EDGE ( 'NONE', *, *, #2, .T. ) ;
#193 = COORDINATED_UNIVERSAL_TIME_OFFSET ( 9, 0, .AHEAD. ) ;
#194 = AXIS2_PLACEMENT_3D ( 'NONE', #171, #176, #234 ) ;
#195 = CARTESIAN_POINT ( 'NONE',  ( 0.000000000000000000, 0.000000000000000000, 10.00000000000000000 ) ) ;
#196 = CIRCLE ( 'NONE', #203, 30.00000000000000000 ) ;
#197 = AXIS2_PLACEMENT_3D ( 'NONE', #181, #62, #218 ) ;
#198 = LOCAL_TIME ( 8, 57, 50.00000000000000000, #42 ) ;
#199 = ORIENTED_EDGE ( 'NONE', *, *, #26, .F. ) ;
#200 = SECURITY_CLASSIFICATION ( '', '', #129 ) ;
#201 = DIRECTION ( 'NONE',  ( 1.000000000000000000, 0.000000000000000000, 0.000000000000000000 ) ) ;
#202 = EDGE_LOOP ( 'NONE', ( #141, #229 ) ) ;
#203 = AXIS2_PLACEMENT_3D ( 'NONE', #79, #84, #20 ) ;
#204 = CC_DESIGN_SECURITY_CLASSIFICATION ( #200, ( #31 ) ) ;
#205 = EDGE_CURVE ( 'NONE', #120, #220, #17, .T. ) ;
#206 = CIRCLE ( 'NONE', #104, 30.00000000000000000 ) ;
#207 = PERSON_AND_ORGANIZATION ( #82, #43 ) ;
#208 = CARTESIAN_POINT ( 'NONE',  ( 0.000000000000000000, 0.000000000000000000, 0.000000000000000000 ) ) ;
#209 = APPROVAL_ROLE ( '' ) ;
#210 = CYLINDRICAL_SURFACE ( 'NONE', #167, 30.00000000000000000 ) ;
#211 = CC_DESIGN_APPROVAL ( #33, ( #121 ) ) ;
#212 = PERSON_AND_ORGANIZATION ( #82, #43 ) ;
#213 = FACE_OUTER_BOUND ( 'NONE', #150, .T. ) ;
#214 = ADVANCED_FACE ( 'NONE', ( #39, #114 ), #19, .F. ) ;
#215 = DATE_TIME_ROLE ( 'creation_date' ) ;
#216 = CYLINDRICAL_SURFACE ( 'NONE', #36, 30.00000000000000000 ) ;
#217 = DATE_AND_TIME ( #144, #48 ) ;
#218 = DIRECTION ( 'NONE',  ( 1.000000000000000000, 0.000000000000000000, 0.000000000000000000 ) ) ;
#219 = ORIENTED_EDGE ( 'NONE', *, *, #232, .T. ) ;
#220 = VERTEX_POINT ( 'NONE', #83 ) ;
#221 = AXIS2_PLACEMENT_3D ( 'NONE', #106, #55, #139 ) ;
#222 = CC_DESIGN_DATE_AND_TIME_ASSIGNMENT ( #92, #248, ( #200 ) ) ;
#223 = CARTESIAN_POINT ( 'NONE',  ( -30.00000000000000000, 0.000000000000000000, 0.000000000000000000 ) ) ;
#224 = ORIENTED_EDGE ( 'NONE', *, *, #45, .F. ) ;
#225 = CIRCLE ( 'NONE', #179, 30.00000000000000000 ) ;
#226 = VERTEX_POINT ( 'NONE', #140 ) ;
#227 = FACE_OUTER_BOUND ( 'NONE', #230, .T. ) ;
#228 = ORIENTED_EDGE ( 'NONE', *, *, #133, .T. ) ;
#229 = ORIENTED_EDGE ( 'NONE', *, *, #244, .T. ) ;
#230 = EDGE_LOOP ( 'NONE', ( #249, #13, #192, #188 ) ) ;
#231 = VECTOR ( 'NONE', #12, 1000.000000000000000 ) ;
#232 = EDGE_CURVE ( 'NONE', #102, #135, #50, .T. ) ;
#233 = PERSON_AND_ORGANIZATION ( #82, #43 ) ;
#234 = DIRECTION ( 'NONE',  ( 1.000000000000000000, 0.000000000000000000, 0.000000000000000000 ) ) ;
#235 = LINE ( 'NONE', #98, #127 ) ;
#236 = CARTESIAN_POINT ( 'NONE',  ( 30.00000000000000000, 3.673940397442059178E-15, 0.000000000000000000 ) ) ;
#237 = CARTESIAN_POINT ( 'NONE',  ( 30.00000000000000000, 3.673940397442059178E-15, 10.00000000000000000 ) ) ;
#238 = CIRCLE ( 'NONE', #74, 8.500000000000000000 ) ;
#239 = CALENDAR_DATE ( 2021, 25, 10 ) ;
#240 = EDGE_CURVE ( 'NONE', #102, #226, #243, .T. ) ;
#241 = FACE_OUTER_BOUND ( 'NONE', #137, .T. ) ;
#242 = AXIS2_PLACEMENT_3D ( 'NONE', #195, #77, #183 ) ;
#243 = CIRCLE ( 'NONE', #118, 8.500000000000000000 ) ;
#244 = EDGE_CURVE ( 'NONE', #135, #109, #160, .T. ) ;
#245 = DIRECTION ( 'NONE',  ( 0.000000000000000000, 0.000000000000000000, 1.000000000000000000 ) ) ;
#246 = VERTEX_POINT ( 'NONE', #223 ) ;
#247 = EDGE_LOOP ( 'NONE', ( #224, #32 ) ) ;
#248 = DATE_TIME_ROLE ( 'classification_date' ) ;
#249 = ORIENTED_EDGE ( 'NONE', *, *, #232, .F. ) ;
ENDSEC;
END-ISO-10303-21;
