ISO-10303-21;
HEADER;
FILE_DESCRIPTION (( 'STEP AP203' ),
    '1' );
FILE_NAME ('bj623-10003.STEP',
    '2021-10-24T23:57:30',
    ( '' ),
    ( '' ),
    'SwSTEP 2.0',
    'SolidWorks 2020',
    '' );
FILE_SCHEMA (( 'CONFIG_CONTROL_DESIGN' ));
ENDSEC;

DATA;
#1 = EDGE_CURVE ( 'NONE', #89, #38, #43, .T. ) ;
#2 = DIRECTION ( 'NONE',  ( 0.000000000000000000, 0.000000000000000000, -1.000000000000000000 ) ) ;
#3 = CARTESIAN_POINT ( 'NONE',  ( 0.000000000000000000, 0.000000000000000000, 10.00000000000000000 ) ) ;
#4 = CLOSED_SHELL ( 'NONE', ( #135, #67, #138, #86, #206, #199 ) ) ;
#5 = PERSON_AND_ORGANIZATION ( #213, #71 ) ;
#6 = ORIENTED_EDGE ( 'NONE', *, *, #197, .F. ) ;
#7 = SECURITY_CLASSIFICATION ( '', '', #22 ) ;
#8 = DIRECTION ( 'NONE',  ( 0.000000000000000000, 0.000000000000000000, -1.000000000000000000 ) ) ;
#9 = ORIENTED_EDGE ( 'NONE', *, *, #100, .T. ) ;
#10 = CC_DESIGN_PERSON_AND_ORGANIZATION_ASSIGNMENT ( #244, #170, ( #232 ) ) ;
#11 = APPLICATION_CONTEXT ( 'configuration controlled 3d designs of mechanical parts and assemblies' ) ;
#12 = LOCAL_TIME ( 8, 57, 30.00000000000000000, #145 ) ;
#13 = PRODUCT_DEFINITION_SHAPE ( 'NONE', 'NONE',  #172 ) ;
#14 = EDGE_CURVE ( 'NONE', #89, #200, #118, .T. ) ;
#15 = MANIFOLD_SOLID_BREP ( 'Imported1', #4 ) ;
#16 = DESIGN_CONTEXT ( 'detailed design', #11, 'design' ) ;
#17 = SHAPE_DEFINITION_REPRESENTATION ( #13, #188 ) ;
#18 = PERSON_AND_ORGANIZATION ( #213, #71 ) ;
#19 = ORIENTED_EDGE ( 'NONE', *, *, #1, .F. ) ;
#20 = CIRCLE ( 'NONE', #24, 5.250000000000000000 ) ;
#21 = CARTESIAN_POINT ( 'NONE',  ( 0.000000000000000000, 0.000000000000000000, 10.00000000000000000 ) ) ;
#22 = SECURITY_CLASSIFICATION_LEVEL ( 'unclassified' ) ;
#23 = EDGE_CURVE ( 'NONE', #200, #89, #211, .T. ) ;
#24 = AXIS2_PLACEMENT_3D ( 'NONE', #225, #187, #150 ) ;
#25 = DIRECTION ( 'NONE',  ( 0.000000000000000000, 0.000000000000000000, -1.000000000000000000 ) ) ;
#26 = FACE_OUTER_BOUND ( 'NONE', #147, .T. ) ;
#27 = DIRECTION ( 'NONE',  ( -1.000000000000000000, 0.000000000000000000, 0.000000000000000000 ) ) ;
#28 = AXIS2_PLACEMENT_3D ( 'NONE', #134, #98, #171 ) ;
#29 = DIRECTION ( 'NONE',  ( 1.000000000000000000, 0.000000000000000000, 0.000000000000000000 ) ) ;
#30 =( GEOMETRIC_REPRESENTATION_CONTEXT ( 3 ) GLOBAL_UNCERTAINTY_ASSIGNED_CONTEXT ( ( #85 ) ) GLOBAL_UNIT_ASSIGNED_CONTEXT ( ( #241, #127, #221 ) ) REPRESENTATION_CONTEXT ( 'NONE', 'WORKASPACE' ) );
#31 = AXIS2_PLACEMENT_3D ( 'NONE', #142, #158, #66 ) ;
#32 = CARTESIAN_POINT ( 'NONE',  ( 15.00000000000000000, 1.836970198721029589E-15, 10.00000000000000000 ) ) ;
#33 = CIRCLE ( 'NONE', #28, 5.250000000000000000 ) ;
#34 = EDGE_CURVE ( 'NONE', #182, #38, #45, .T. ) ;
#35 = ORIENTED_EDGE ( 'NONE', *, *, #34, .T. ) ;
#36 = DIRECTION ( 'NONE',  ( 0.000000000000000000, 0.000000000000000000, 1.000000000000000000 ) ) ;
#37 = APPLICATION_PROTOCOL_DEFINITION ( 'international standard', 'config_control_design', 1994, #11 ) ;
#38 = VERTEX_POINT ( 'NONE', #101 ) ;
#39 = FACE_BOUND ( 'NONE', #186, .T. ) ;
#40 = EDGE_CURVE ( 'NONE', #115, #128, #159, .T. ) ;
#41 = DIRECTION ( 'NONE',  ( 0.000000000000000000, 0.000000000000000000, 1.000000000000000000 ) ) ;
#42 = EDGE_LOOP ( 'NONE', ( #243, #239, #9, #205 ) ) ;
#43 = LINE ( 'NONE', #32, #194 ) ;
#44 = FACE_OUTER_BOUND ( 'NONE', #125, .T. ) ;
#45 = CIRCLE ( 'NONE', #75, 15.00000000000000000 ) ;
#46 = ORIENTED_EDGE ( 'NONE', *, *, #34, .F. ) ;
#47 = PRODUCT_DEFINITION_FORMATION_WITH_SPECIFIED_SOURCE ( 'ANY', '', #232, .NOT_KNOWN. ) ;
#48 = DIRECTION ( 'NONE',  ( -1.000000000000000000, 0.000000000000000000, 0.000000000000000000 ) ) ;
#49 = ORIENTED_EDGE ( 'NONE', *, *, #139, .F. ) ;
#50 = DATE_AND_TIME ( #220, #12 ) ;
#51 = DATE_AND_TIME ( #218, #155 ) ;
#52 = CARTESIAN_POINT ( 'NONE',  ( 5.250000000000000000, 6.429395695523604153E-16, 10.00000000000000000 ) ) ;
#53 = AXIS2_PLACEMENT_3D ( 'NONE', #176, #227, #27 ) ;
#54 = ORIENTED_EDGE ( 'NONE', *, *, #197, .T. ) ;
#55 = DIRECTION ( 'NONE',  ( 0.000000000000000000, 0.000000000000000000, 1.000000000000000000 ) ) ;
#56 = CARTESIAN_POINT ( 'NONE',  ( -15.00000000000000000, 0.000000000000000000, 10.00000000000000000 ) ) ;
#57 = EDGE_LOOP ( 'NONE', ( #93, #231 ) ) ;
#58 = ORIENTED_EDGE ( 'NONE', *, *, #139, .T. ) ;
#59 = CC_DESIGN_SECURITY_CLASSIFICATION ( #7, ( #47 ) ) ;
#60 = CARTESIAN_POINT ( 'NONE',  ( 0.000000000000000000, 0.000000000000000000, 10.00000000000000000 ) ) ;
#61 = PRODUCT_RELATED_PRODUCT_CATEGORY ( 'detail', '', ( #232 ) ) ;
#62 = CARTESIAN_POINT ( 'NONE',  ( 0.000000000000000000, 0.000000000000000000, 0.000000000000000000 ) ) ;
#63 = CC_DESIGN_PERSON_AND_ORGANIZATION_ASSIGNMENT ( #196, #183, ( #47 ) ) ;
#64 = COORDINATED_UNIVERSAL_TIME_OFFSET ( 9, 0, .AHEAD. ) ;
#65 = PERSON_AND_ORGANIZATION ( #213, #71 ) ;
#66 = DIRECTION ( 'NONE',  ( 1.000000000000000000, 0.000000000000000000, 0.000000000000000000 ) ) ;
#67 = ADVANCED_FACE ( 'NONE', ( #217 ), #245, .T. ) ;
#68 = APPROVAL_STATUS ( 'not_yet_approved' ) ;
#69 = APPROVAL_ROLE ( '' ) ;
#70 = CALENDAR_DATE ( 2021, 25, 10 ) ;
#71 = ORGANIZATION ( 'UNSPECIFIED', 'UNSPECIFIED', '' ) ;
#72 = CYLINDRICAL_SURFACE ( 'NONE', #94, 5.250000000000000000 ) ;
#73 = DIRECTION ( 'NONE',  ( -1.000000000000000000, 0.000000000000000000, 0.000000000000000000 ) ) ;
#74 = ORIENTED_EDGE ( 'NONE', *, *, #240, .T. ) ;
#75 = AXIS2_PLACEMENT_3D ( 'NONE', #121, #41, #29 ) ;
#76 = AXIS2_PLACEMENT_3D ( 'NONE', #235, #97, #169 ) ;
#77 = APPROVAL ( #143, 'UNSPECIFIED' ) ;
#78 = CC_DESIGN_APPROVAL ( #156, ( #47 ) ) ;
#79 = EDGE_LOOP ( 'NONE', ( #46, #189 ) ) ;
#80 = VERTEX_POINT ( 'NONE', #177 ) ;
#81 = LINE ( 'NONE', #52, #99 ) ;
#82 = EDGE_LOOP ( 'NONE', ( #237, #54, #58, #83 ) ) ;
#83 = ORIENTED_EDGE ( 'NONE', *, *, #40, .F. ) ;
#84 = VECTOR ( 'NONE', #2, 1000.000000000000000 ) ;
#85 = UNCERTAINTY_MEASURE_WITH_UNIT (LENGTH_MEASURE( 1.000000000000000082E-05 ), #241, 'distance_accuracy_value', 'NONE');
#86 = ADVANCED_FACE ( 'NONE', ( #124, #87 ), #157, .F. ) ;
#87 = FACE_BOUND ( 'NONE', #57, .T. ) ;
#88 = DATE_TIME_ROLE ( 'classification_date' ) ;
#89 = VERTEX_POINT ( 'NONE', #144 ) ;
#90 = DATE_AND_TIME ( #222, #219 ) ;
#91 = PERSON_AND_ORGANIZATION ( #213, #71 ) ;
#92 = AXIS2_PLACEMENT_3D ( 'NONE', #190, #234, #102 ) ;
#93 = ORIENTED_EDGE ( 'NONE', *, *, #192, .T. ) ;
#94 = AXIS2_PLACEMENT_3D ( 'NONE', #204, #25, #95 ) ;
#95 = DIRECTION ( 'NONE',  ( -1.000000000000000000, 0.000000000000000000, 0.000000000000000000 ) ) ;
#96 = CYLINDRICAL_SURFACE ( 'NONE', #122, 15.00000000000000000 ) ;
#97 = DIRECTION ( 'NONE',  ( 0.000000000000000000, 0.000000000000000000, 1.000000000000000000 ) ) ;
#98 = DIRECTION ( 'NONE',  ( 0.000000000000000000, 0.000000000000000000, 1.000000000000000000 ) ) ;
#99 = VECTOR ( 'NONE', #161, 1000.000000000000000 ) ;
#100 = EDGE_CURVE ( 'NONE', #38, #182, #212, .T. ) ;
#101 = CARTESIAN_POINT ( 'NONE',  ( 15.00000000000000000, 1.836970198721029589E-15, 0.000000000000000000 ) ) ;
#102 = DIRECTION ( 'NONE',  ( 1.000000000000000000, 0.000000000000000000, 0.000000000000000000 ) ) ;
#103 = VECTOR ( 'NONE', #8, 1000.000000000000000 ) ;
#104 = CYLINDRICAL_SURFACE ( 'NONE', #53, 5.250000000000000000 ) ;
#105 = ORIENTED_EDGE ( 'NONE', *, *, #23, .F. ) ;
#106 = AXIS2_PLACEMENT_3D ( 'NONE', #60, #215, #137 ) ;
#107 = ORIENTED_EDGE ( 'NONE', *, *, #149, .T. ) ;
#108 = DIRECTION ( 'NONE',  ( 0.000000000000000000, 0.000000000000000000, -1.000000000000000000 ) ) ;
#109 = CC_DESIGN_APPROVAL ( #77, ( #7 ) ) ;
#110 = COORDINATED_UNIVERSAL_TIME_OFFSET ( 9, 0, .AHEAD. ) ;
#111 = CC_DESIGN_PERSON_AND_ORGANIZATION_ASSIGNMENT ( #91, #226, ( #7 ) ) ;
#112 = APPROVAL_STATUS ( 'not_yet_approved' ) ;
#113 = FACE_OUTER_BOUND ( 'NONE', #82, .T. ) ;
#114 = APPROVAL_PERSON_ORGANIZATION ( #5, #202, #249 ) ;
#115 = VERTEX_POINT ( 'NONE', #184 ) ;
#116 = CARTESIAN_POINT ( 'NONE',  ( -15.00000000000000000, 0.000000000000000000, 10.00000000000000000 ) ) ;
#117 = ORIENTED_EDGE ( 'NONE', *, *, #23, .T. ) ;
#118 = CIRCLE ( 'NONE', #152, 15.00000000000000000 ) ;
#119 = AXIS2_PLACEMENT_3D ( 'NONE', #3, #55, #148 ) ;
#120 = CIRCLE ( 'NONE', #198, 5.250000000000000000 ) ;
#121 = CARTESIAN_POINT ( 'NONE',  ( 0.000000000000000000, 0.000000000000000000, 0.000000000000000000 ) ) ;
#122 = AXIS2_PLACEMENT_3D ( 'NONE', #230, #168, #73 ) ;
#123 = DIRECTION ( 'NONE',  ( 0.000000000000000000, 0.000000000000000000, 1.000000000000000000 ) ) ;
#124 = FACE_OUTER_BOUND ( 'NONE', #79, .T. ) ;
#125 = EDGE_LOOP ( 'NONE', ( #167, #74, #133, #49 ) ) ;
#126 = APPROVAL_DATE_TIME ( #50, #77 ) ;
#127 =( NAMED_UNIT ( * ) PLANE_ANGLE_UNIT ( ) SI_UNIT ( $, .RADIAN. ) );
#128 = VERTEX_POINT ( 'NONE', #210 ) ;
#129 = CC_DESIGN_DATE_AND_TIME_ASSIGNMENT ( #51, #162, ( #172 ) ) ;
#130 = CARTESIAN_POINT ( 'NONE',  ( -5.250000000000000000, 0.000000000000000000, 10.00000000000000000 ) ) ;
#131 = CARTESIAN_POINT ( 'NONE',  ( -15.00000000000000000, 0.000000000000000000, 0.000000000000000000 ) ) ;
#132 = AXIS2_PLACEMENT_3D ( 'NONE', #62, #140, #195 ) ;
#133 = ORIENTED_EDGE ( 'NONE', *, *, #192, .F. ) ;
#134 = CARTESIAN_POINT ( 'NONE',  ( 0.000000000000000000, 0.000000000000000000, 10.00000000000000000 ) ) ;
#135 = ADVANCED_FACE ( 'NONE', ( #44 ), #104, .F. ) ;
#136 = PERSON_AND_ORGANIZATION_ROLE ( 'creator' ) ;
#137 = DIRECTION ( 'NONE',  ( 1.000000000000000000, 0.000000000000000000, 0.000000000000000000 ) ) ;
#138 = ADVANCED_FACE ( 'NONE', ( #181, #39 ), #166, .T. ) ;
#139 = EDGE_CURVE ( 'NONE', #80, #128, #165, .T. ) ;
#140 = DIRECTION ( 'NONE',  ( 0.000000000000000000, 0.000000000000000000, 1.000000000000000000 ) ) ;
#141 = DIRECTION ( 'NONE',  ( 0.000000000000000000, 0.000000000000000000, -1.000000000000000000 ) ) ;
#142 = CARTESIAN_POINT ( 'NONE',  ( 0.000000000000000000, 0.000000000000000000, 0.000000000000000000 ) ) ;
#143 = APPROVAL_STATUS ( 'not_yet_approved' ) ;
#144 = CARTESIAN_POINT ( 'NONE',  ( 15.00000000000000000, 1.836970198721029589E-15, 10.00000000000000000 ) ) ;
#145 = COORDINATED_UNIVERSAL_TIME_OFFSET ( 9, 0, .AHEAD. ) ;
#146 = CC_DESIGN_PERSON_AND_ORGANIZATION_ASSIGNMENT ( #65, #163, ( #47 ) ) ;
#147 = EDGE_LOOP ( 'NONE', ( #19, #105, #107, #35 ) ) ;
#148 = DIRECTION ( 'NONE',  ( 1.000000000000000000, 0.000000000000000000, 0.000000000000000000 ) ) ;
#149 = EDGE_CURVE ( 'NONE', #200, #182, #173, .T. ) ;
#150 = DIRECTION ( 'NONE',  ( 1.000000000000000000, 0.000000000000000000, 0.000000000000000000 ) ) ;
#151 = EDGE_LOOP ( 'NONE', ( #117, #160 ) ) ;
#152 = AXIS2_PLACEMENT_3D ( 'NONE', #224, #123, #175 ) ;
#153 = CARTESIAN_POINT ( 'NONE',  ( 5.250000000000000000, 6.429395695523604153E-16, 10.00000000000000000 ) ) ;
#154 = APPROVAL_DATE_TIME ( #229, #202 ) ;
#155 = LOCAL_TIME ( 8, 57, 30.00000000000000000, #64 ) ;
#156 = APPROVAL ( #68, 'UNSPECIFIED' ) ;
#157 = PLANE ( 'NONE',  #31 ) ;
#158 = DIRECTION ( 'NONE',  ( 0.000000000000000000, 0.000000000000000000, 1.000000000000000000 ) ) ;
#159 = CIRCLE ( 'NONE', #76, 5.250000000000000000 ) ;
#160 = ORIENTED_EDGE ( 'NONE', *, *, #14, .T. ) ;
#161 = DIRECTION ( 'NONE',  ( 0.000000000000000000, 0.000000000000000000, -1.000000000000000000 ) ) ;
#162 = DATE_TIME_ROLE ( 'creation_date' ) ;
#163 = PERSON_AND_ORGANIZATION_ROLE ( 'creator' ) ;
#164 = LOCAL_TIME ( 8, 57, 30.00000000000000000, #247 ) ;
#165 = LINE ( 'NONE', #130, #84 ) ;
#166 = PLANE ( 'NONE',  #119 ) ;
#167 = ORIENTED_EDGE ( 'NONE', *, *, #208, .T. ) ;
#168 = DIRECTION ( 'NONE',  ( 0.000000000000000000, 0.000000000000000000, -1.000000000000000000 ) ) ;
#169 = DIRECTION ( 'NONE',  ( 1.000000000000000000, 0.000000000000000000, 0.000000000000000000 ) ) ;
#170 = PERSON_AND_ORGANIZATION_ROLE ( 'design_owner' ) ;
#171 = DIRECTION ( 'NONE',  ( 1.000000000000000000, 0.000000000000000000, 0.000000000000000000 ) ) ;
#172 = PRODUCT_DEFINITION ( 'UNKNOWN', '', #47, #16 ) ;
#173 = LINE ( 'NONE', #56, #103 ) ;
#174 = CC_DESIGN_APPROVAL ( #202, ( #172 ) ) ;
#175 = DIRECTION ( 'NONE',  ( 1.000000000000000000, 0.000000000000000000, 0.000000000000000000 ) ) ;
#176 = CARTESIAN_POINT ( 'NONE',  ( 0.000000000000000000, 0.000000000000000000, 10.00000000000000000 ) ) ;
#177 = CARTESIAN_POINT ( 'NONE',  ( -5.250000000000000000, 0.000000000000000000, 10.00000000000000000 ) ) ;
#178 = DATE_AND_TIME ( #70, #164 ) ;
#179 = APPLICATION_PROTOCOL_DEFINITION ( 'international standard', 'config_control_design', 1994, #238 ) ;
#180 = APPROVAL_DATE_TIME ( #90, #156 ) ;
#181 = FACE_OUTER_BOUND ( 'NONE', #151, .T. ) ;
#182 = VERTEX_POINT ( 'NONE', #131 ) ;
#183 = PERSON_AND_ORGANIZATION_ROLE ( 'design_supplier' ) ;
#184 = CARTESIAN_POINT ( 'NONE',  ( 5.250000000000000000, 6.429395695523604153E-16, 0.000000000000000000 ) ) ;
#185 = AXIS2_PLACEMENT_3D ( 'NONE', #21, #141, #48 ) ;
#186 = EDGE_LOOP ( 'NONE', ( #203, #6 ) ) ;
#187 = DIRECTION ( 'NONE',  ( 0.000000000000000000, 0.000000000000000000, 1.000000000000000000 ) ) ;
#188 = ADVANCED_BREP_SHAPE_REPRESENTATION ( 'bj623-10003', ( #15, #132 ), #30 ) ;
#189 = ORIENTED_EDGE ( 'NONE', *, *, #100, .F. ) ;
#190 = CARTESIAN_POINT ( 'NONE',  ( 0.000000000000000000, 0.000000000000000000, 0.000000000000000000 ) ) ;
#191 = DIRECTION ( 'NONE',  ( 1.000000000000000000, 0.000000000000000000, 0.000000000000000000 ) ) ;
#192 = EDGE_CURVE ( 'NONE', #128, #115, #20, .T. ) ;
#193 = PERSON_AND_ORGANIZATION ( #213, #71 ) ;
#194 = VECTOR ( 'NONE', #108, 1000.000000000000000 ) ;
#195 = DIRECTION ( 'NONE',  ( 1.000000000000000000, 0.000000000000000000, 0.000000000000000000 ) ) ;
#196 = PERSON_AND_ORGANIZATION ( #213, #71 ) ;
#197 = EDGE_CURVE ( 'NONE', #207, #80, #120, .T. ) ;
#198 = AXIS2_PLACEMENT_3D ( 'NONE', #201, #36, #191 ) ;
#199 = ADVANCED_FACE ( 'NONE', ( #113 ), #72, .F. ) ;
#200 = VERTEX_POINT ( 'NONE', #116 ) ;
#201 = CARTESIAN_POINT ( 'NONE',  ( 0.000000000000000000, 0.000000000000000000, 10.00000000000000000 ) ) ;
#202 = APPROVAL ( #112, 'UNSPECIFIED' ) ;
#203 = ORIENTED_EDGE ( 'NONE', *, *, #208, .F. ) ;
#204 = CARTESIAN_POINT ( 'NONE',  ( 0.000000000000000000, 0.000000000000000000, 10.00000000000000000 ) ) ;
#205 = ORIENTED_EDGE ( 'NONE', *, *, #149, .F. ) ;
#206 = ADVANCED_FACE ( 'NONE', ( #26 ), #96, .T. ) ;
#207 = VERTEX_POINT ( 'NONE', #153 ) ;
#208 = EDGE_CURVE ( 'NONE', #80, #207, #33, .T. ) ;
#209 = LOCAL_TIME ( 8, 57, 30.00000000000000000, #228 ) ;
#210 = CARTESIAN_POINT ( 'NONE',  ( -5.250000000000000000, 0.000000000000000000, 0.000000000000000000 ) ) ;
#211 = CIRCLE ( 'NONE', #106, 15.00000000000000000 ) ;
#212 = CIRCLE ( 'NONE', #92, 15.00000000000000000 ) ;
#213 = PERSON ( 'UNSPECIFIED', 'UNSPECIFIED', 'UNSPECIFIED', ('UNSPECIFIED'), ('UNSPECIFIED'), ('UNSPECIFIED') ) ;
#214 = CC_DESIGN_PERSON_AND_ORGANIZATION_ASSIGNMENT ( #193, #136, ( #172 ) ) ;
#215 = DIRECTION ( 'NONE',  ( 0.000000000000000000, 0.000000000000000000, 1.000000000000000000 ) ) ;
#216 = MECHANICAL_CONTEXT ( 'NONE', #238, 'mechanical' ) ;
#217 = FACE_OUTER_BOUND ( 'NONE', #42, .T. ) ;
#218 = CALENDAR_DATE ( 2021, 25, 10 ) ;
#219 = LOCAL_TIME ( 8, 57, 30.00000000000000000, #110 ) ;
#220 = CALENDAR_DATE ( 2021, 25, 10 ) ;
#221 =( NAMED_UNIT ( * ) SI_UNIT ( $, .STERADIAN. ) SOLID_ANGLE_UNIT ( ) );
#222 = CALENDAR_DATE ( 2021, 25, 10 ) ;
#223 = CC_DESIGN_DATE_AND_TIME_ASSIGNMENT ( #178, #88, ( #7 ) ) ;
#224 = CARTESIAN_POINT ( 'NONE',  ( 0.000000000000000000, 0.000000000000000000, 10.00000000000000000 ) ) ;
#225 = CARTESIAN_POINT ( 'NONE',  ( 0.000000000000000000, 0.000000000000000000, 0.000000000000000000 ) ) ;
#226 = PERSON_AND_ORGANIZATION_ROLE ( 'classification_officer' ) ;
#227 = DIRECTION ( 'NONE',  ( 0.000000000000000000, 0.000000000000000000, -1.000000000000000000 ) ) ;
#228 = COORDINATED_UNIVERSAL_TIME_OFFSET ( 9, 0, .AHEAD. ) ;
#229 = DATE_AND_TIME ( #233, #209 ) ;
#230 = CARTESIAN_POINT ( 'NONE',  ( 0.000000000000000000, 0.000000000000000000, 10.00000000000000000 ) ) ;
#231 = ORIENTED_EDGE ( 'NONE', *, *, #40, .T. ) ;
#232 = PRODUCT ( 'bj623-10003', 'bj623-10003', '', ( #216 ) ) ;
#233 = CALENDAR_DATE ( 2021, 25, 10 ) ;
#234 = DIRECTION ( 'NONE',  ( 0.000000000000000000, 0.000000000000000000, 1.000000000000000000 ) ) ;
#235 = CARTESIAN_POINT ( 'NONE',  ( 0.000000000000000000, 0.000000000000000000, 0.000000000000000000 ) ) ;
#236 = APPROVAL_PERSON_ORGANIZATION ( #242, #77, #69 ) ;
#237 = ORIENTED_EDGE ( 'NONE', *, *, #240, .F. ) ;
#238 = APPLICATION_CONTEXT ( 'configuration controlled 3d designs of mechanical parts and assemblies' ) ;
#239 = ORIENTED_EDGE ( 'NONE', *, *, #1, .T. ) ;
#240 = EDGE_CURVE ( 'NONE', #207, #115, #81, .T. ) ;
#241 =( LENGTH_UNIT ( ) NAMED_UNIT ( * ) SI_UNIT ( .MILLI., .METRE. ) );
#242 = PERSON_AND_ORGANIZATION ( #213, #71 ) ;
#243 = ORIENTED_EDGE ( 'NONE', *, *, #14, .F. ) ;
#244 = PERSON_AND_ORGANIZATION ( #213, #71 ) ;
#245 = CYLINDRICAL_SURFACE ( 'NONE', #185, 15.00000000000000000 ) ;
#246 = APPROVAL_ROLE ( '' ) ;
#247 = COORDINATED_UNIVERSAL_TIME_OFFSET ( 9, 0, .AHEAD. ) ;
#248 = APPROVAL_PERSON_ORGANIZATION ( #18, #156, #246 ) ;
#249 = APPROVAL_ROLE ( '' ) ;
ENDSEC;
END-ISO-10303-21;
