ISO-10303-21;
HEADER;
FILE_DESCRIPTION (( 'STEP AP203' ),
    '1' );
FILE_NAME ('bj400-16125.STEP',
    '2021-10-24T23:52:18',
    ( '' ),
    ( '' ),
    'SwSTEP 2.0',
    'SolidWorks 2020',
    '' );
FILE_SCHEMA (( 'CONFIG_CONTROL_DESIGN' ));
ENDSEC;

DATA;
#1 = ADVANCED_FACE ( 'NONE', ( #149 ), #128, .F. ) ;
#2 = DIRECTION ( 'NONE',  ( 1.000000000000000000, 0.000000000000000000, 0.000000000000000000 ) ) ;
#3 = LINE ( 'NONE', #6, #12 ) ;
#4 = APPROVAL_STATUS ( 'not_yet_approved' ) ;
#5 = AXIS2_PLACEMENT_3D ( 'NONE', #102, #106, #7 ) ;
#6 = CARTESIAN_POINT ( 'NONE',  ( 13.00000000000000000, 0.000000000000000000, 40.00000000000000000 ) ) ;
#7 = DIRECTION ( 'NONE',  ( 1.000000000000000000, 0.000000000000000000, 0.000000000000000000 ) ) ;
#8 = DIRECTION ( 'NONE',  ( 1.000000000000000000, 0.000000000000000000, 0.000000000000000000 ) ) ;
#9 = APPROVAL_DATE_TIME ( #152, #146 ) ;
#10 = DIRECTION ( 'NONE',  ( 1.000000000000000000, 0.000000000000000000, 0.000000000000000000 ) ) ;
#11 = SECURITY_CLASSIFICATION_LEVEL ( 'unclassified' ) ;
#12 = VECTOR ( 'NONE', #260, 1000.000000000000000 ) ;
#13 = DIRECTION ( 'NONE',  ( 0.000000000000000000, 0.000000000000000000, 1.000000000000000000 ) ) ;
#14 = ADVANCED_FACE ( 'NONE', ( #304 ), #329, .T. ) ;
#15 = CALENDAR_DATE ( 2021, 25, 10 ) ;
#16 = DIRECTION ( 'NONE',  ( 1.000000000000000000, 0.000000000000000000, 0.000000000000000000 ) ) ;
#17 = FACE_OUTER_BOUND ( 'NONE', #279, .T. ) ;
#18 = ORIENTED_EDGE ( 'NONE', *, *, #84, .F. ) ;
#19 = CALENDAR_DATE ( 2021, 25, 10 ) ;
#20 = VERTEX_POINT ( 'NONE', #176 ) ;
#21 = DIRECTION ( 'NONE',  ( 1.000000000000000000, 0.000000000000000000, 0.000000000000000000 ) ) ;
#22 = AXIS2_PLACEMENT_3D ( 'NONE', #175, #105, #16 ) ;
#23 = FACE_OUTER_BOUND ( 'NONE', #123, .T. ) ;
#24 = VERTEX_POINT ( 'NONE', #193 ) ;
#25 = VERTEX_POINT ( 'NONE', #298 ) ;
#26 = PERSON ( 'UNSPECIFIED', 'UNSPECIFIED', 'UNSPECIFIED', ('UNSPECIFIED'), ('UNSPECIFIED'), ('UNSPECIFIED') ) ;
#27 = COORDINATED_UNIVERSAL_TIME_OFFSET ( 9, 0, .AHEAD. ) ;
#28 = CYLINDRICAL_SURFACE ( 'NONE', #127, 25.00000000000000000 ) ;
#29 = CARTESIAN_POINT ( 'NONE',  ( 0.000000000000000000, 0.000000000000000000, 40.00000000000000000 ) ) ;
#30 = LOCAL_TIME ( 8, 52, 18.00000000000000000, #40 ) ;
#31 = DATE_TIME_ROLE ( 'creation_date' ) ;
#32 = DIRECTION ( 'NONE',  ( 0.000000000000000000, 0.000000000000000000, 1.000000000000000000 ) ) ;
#33 = ADVANCED_FACE ( 'NONE', ( #248, #23 ), #125, .F. ) ;
#34 = UNCERTAINTY_MEASURE_WITH_UNIT (LENGTH_MEASURE( 1.000000000000000082E-05 ), #172, 'distance_accuracy_value', 'NONE');
#35 = APPROVAL_ROLE ( '' ) ;
#36 = DIRECTION ( 'NONE',  ( 0.000000000000000000, 0.000000000000000000, 1.000000000000000000 ) ) ;
#37 = AXIS2_PLACEMENT_3D ( 'NONE', #313, #164, #208 ) ;
#38 = FACE_BOUND ( 'NONE', #69, .T. ) ;
#39 = DIRECTION ( 'NONE',  ( 0.000000000000000000, 0.000000000000000000, 1.000000000000000000 ) ) ;
#40 = COORDINATED_UNIVERSAL_TIME_OFFSET ( 9, 0, .AHEAD. ) ;
#41 = DIRECTION ( 'NONE',  ( 1.000000000000000000, 0.000000000000000000, 0.000000000000000000 ) ) ;
#42 = VERTEX_POINT ( 'NONE', #203 ) ;
#43 = DIRECTION ( 'NONE',  ( 0.000000000000000000, 0.000000000000000000, 1.000000000000000000 ) ) ;
#44 = EDGE_LOOP ( 'NONE', ( #89, #213, #101, #301 ) ) ;
#45 = ORIENTED_EDGE ( 'NONE', *, *, #78, .T. ) ;
#46 = LOCAL_TIME ( 8, 52, 18.00000000000000000, #58 ) ;
#47 = DIRECTION ( 'NONE',  ( -1.000000000000000000, 0.000000000000000000, 0.000000000000000000 ) ) ;
#48 = CARTESIAN_POINT ( 'NONE',  ( 13.00000000000000000, 0.000000000000000000, 25.00000000000000000 ) ) ;
#49 = ORIENTED_EDGE ( 'NONE', *, *, #185, .F. ) ;
#50 = DIRECTION ( 'NONE',  ( 0.000000000000000000, 0.000000000000000000, 1.000000000000000000 ) ) ;
#51 = EDGE_CURVE ( 'NONE', #139, #42, #3, .T. ) ;
#52 = CARTESIAN_POINT ( 'NONE',  ( 0.000000000000000000, 0.000000000000000000, 0.000000000000000000 ) ) ;
#53 = CIRCLE ( 'NONE', #237, 13.00000000000000000 ) ;
#54 = CALENDAR_DATE ( 2021, 25, 10 ) ;
#55 = AXIS2_PLACEMENT_3D ( 'NONE', #228, #77, #231 ) ;
#56 = CYLINDRICAL_SURFACE ( 'NONE', #137, 13.00000000000000000 ) ;
#57 = DIRECTION ( 'NONE',  ( 0.000000000000000000, 0.000000000000000000, 1.000000000000000000 ) ) ;
#58 = COORDINATED_UNIVERSAL_TIME_OFFSET ( 9, 0, .AHEAD. ) ;
#59 = EDGE_CURVE ( 'NONE', #148, #170, #103, .T. ) ;
#60 = APPLICATION_CONTEXT ( 'configuration controlled 3d designs of mechanical parts and assemblies' ) ;
#61 = DIRECTION ( 'NONE',  ( 0.000000000000000000, 0.000000000000000000, 1.000000000000000000 ) ) ;
#62 = DIRECTION ( 'NONE',  ( 0.000000000000000000, 0.000000000000000000, 1.000000000000000000 ) ) ;
#63 = LOCAL_TIME ( 8, 52, 18.00000000000000000, #142 ) ;
#64 = ORIENTED_EDGE ( 'NONE', *, *, #284, .T. ) ;
#65 = CARTESIAN_POINT ( 'NONE',  ( 0.000000000000000000, 0.000000000000000000, 125.0000000000000000 ) ) ;
#66 = ORIENTED_EDGE ( 'NONE', *, *, #108, .F. ) ;
#67 = PERSON_AND_ORGANIZATION ( #26, #151 ) ;
#68 = AXIS2_PLACEMENT_3D ( 'NONE', #303, #43, #124 ) ;
#69 = EDGE_LOOP ( 'NONE', ( #222, #66 ) ) ;
#70 = ORIENTED_EDGE ( 'NONE', *, *, #108, .T. ) ;
#71 = CC_DESIGN_PERSON_AND_ORGANIZATION_ASSIGNMENT ( #189, #246, ( #249 ) ) ;
#72 = ORIENTED_EDGE ( 'NONE', *, *, #59, .T. ) ;
#73 = VERTEX_POINT ( 'NONE', #135 ) ;
#74 = VECTOR ( 'NONE', #62, 1000.000000000000000 ) ;
#75 = CARTESIAN_POINT ( 'NONE',  ( 8.000000000000000000, 0.000000000000000000, 40.00000000000000000 ) ) ;
#76 = CC_DESIGN_SECURITY_CLASSIFICATION ( #144, ( #249 ) ) ;
#77 = DIRECTION ( 'NONE',  ( 0.000000000000000000, 0.000000000000000000, 1.000000000000000000 ) ) ;
#78 = EDGE_CURVE ( 'NONE', #170, #150, #233, .T. ) ;
#79 = FACE_OUTER_BOUND ( 'NONE', #247, .T. ) ;
#80 = DIRECTION ( 'NONE',  ( 0.000000000000000000, 0.000000000000000000, 1.000000000000000000 ) ) ;
#81 = CC_DESIGN_DATE_AND_TIME_ASSIGNMENT ( #104, #31, ( #132 ) ) ;
#82 = PLANE ( 'NONE',  #201 ) ;
#83 = PERSON_AND_ORGANIZATION ( #26, #151 ) ;
#84 = EDGE_CURVE ( 'NONE', #20, #85, #241, .T. ) ;
#85 = VERTEX_POINT ( 'NONE', #202 ) ;
#86 = APPROVAL ( #283, 'UNSPECIFIED' ) ;
#87 = CARTESIAN_POINT ( 'NONE',  ( 0.000000000000000000, 0.000000000000000000, 0.000000000000000000 ) ) ;
#88 = CALENDAR_DATE ( 2021, 25, 10 ) ;
#89 = ORIENTED_EDGE ( 'NONE', *, *, #185, .T. ) ;
#90 = APPLICATION_PROTOCOL_DEFINITION ( 'international standard', 'config_control_design', 1994, #275 ) ;
#91 = EDGE_LOOP ( 'NONE', ( #280, #209 ) ) ;
#92 = CC_DESIGN_APPROVAL ( #86, ( #249 ) ) ;
#93 = ORIENTED_EDGE ( 'NONE', *, *, #262, .T. ) ;
#94 = ORIENTED_EDGE ( 'NONE', *, *, #51, .F. ) ;
#95 = AXIS2_PLACEMENT_3D ( 'NONE', #52, #308, #254 ) ;
#96 = EDGE_LOOP ( 'NONE', ( #312, #243, #72, #45 ) ) ;
#97 = EDGE_CURVE ( 'NONE', #73, #148, #281, .T. ) ;
#98 = DIRECTION ( 'NONE',  ( 0.000000000000000000, 0.000000000000000000, -1.000000000000000000 ) ) ;
#99 = EDGE_LOOP ( 'NONE', ( #276, #267 ) ) ;
#100 = ADVANCED_FACE ( 'NONE', ( #130 ), #56, .F. ) ;
#101 = ORIENTED_EDGE ( 'NONE', *, *, #232, .F. ) ;
#102 = CARTESIAN_POINT ( 'NONE',  ( 0.000000000000000000, 0.000000000000000000, 25.00000000000000000 ) ) ;
#103 = LINE ( 'NONE', #75, #204 ) ;
#104 = DATE_AND_TIME ( #131, #289 ) ;
#105 = DIRECTION ( 'NONE',  ( 0.000000000000000000, 0.000000000000000000, 1.000000000000000000 ) ) ;
#106 = DIRECTION ( 'NONE',  ( 0.000000000000000000, 0.000000000000000000, 1.000000000000000000 ) ) ;
#107 = PERSON_AND_ORGANIZATION ( #26, #151 ) ;
#108 = EDGE_CURVE ( 'NONE', #150, #170, #220, .T. ) ;
#109 = CARTESIAN_POINT ( 'NONE',  ( 8.000000000000000000, 0.000000000000000000, 0.000000000000000000 ) ) ;
#110 = PERSON_AND_ORGANIZATION_ROLE ( 'creator' ) ;
#111 = VECTOR ( 'NONE', #186, 1000.000000000000000 ) ;
#112 = ORIENTED_EDGE ( 'NONE', *, *, #51, .T. ) ;
#113 = DATE_AND_TIME ( #15, #30 ) ;
#114 = CARTESIAN_POINT ( 'NONE',  ( 8.000000000000000000, 0.000000000000000000, 25.00000000000000000 ) ) ;
#115 = EDGE_LOOP ( 'NONE', ( #196, #322, #141, #145 ) ) ;
#116 = DIRECTION ( 'NONE',  ( 0.000000000000000000, 0.000000000000000000, 1.000000000000000000 ) ) ;
#117 = ORIENTED_EDGE ( 'NONE', *, *, #218, .F. ) ;
#118 = DATE_AND_TIME ( #19, #63 ) ;
#119 = CARTESIAN_POINT ( 'NONE',  ( -13.00000000000000000, 1.592040838891559095E-15, 125.0000000000000000 ) ) ;
#120 = COORDINATED_UNIVERSAL_TIME_OFFSET ( 9, 0, .AHEAD. ) ;
#121 = APPROVAL_DATE_TIME ( #118, #326 ) ;
#122 = EDGE_CURVE ( 'NONE', #139, #24, #158, .T. ) ;
#123 = EDGE_LOOP ( 'NONE', ( #225, #93 ) ) ;
#124 = DIRECTION ( 'NONE',  ( 1.000000000000000000, 0.000000000000000000, 0.000000000000000000 ) ) ;
#125 = PLANE ( 'NONE',  #161 ) ;
#126 = ORIENTED_EDGE ( 'NONE', *, *, #218, .T. ) ;
#127 = AXIS2_PLACEMENT_3D ( 'NONE', #133, #285, #154 ) ;
#128 = CYLINDRICAL_SURFACE ( 'NONE', #305, 8.000000000000000000 ) ;
#129 = AXIS2_PLACEMENT_3D ( 'NONE', #153, #32, #8 ) ;
#130 = FACE_OUTER_BOUND ( 'NONE', #245, .T. ) ;
#131 = CALENDAR_DATE ( 2021, 25, 10 ) ;
#132 = PRODUCT_DEFINITION ( 'UNKNOWN', '', #249, #311 ) ;
#133 = CARTESIAN_POINT ( 'NONE',  ( 0.000000000000000000, 0.000000000000000000, 40.00000000000000000 ) ) ;
#134 = ADVANCED_FACE ( 'NONE', ( #79 ), #183, .F. ) ;
#135 = CARTESIAN_POINT ( 'NONE',  ( -8.000000000000000000, 9.797174393178825657E-16, 0.000000000000000000 ) ) ;
#136 = AXIS2_PLACEMENT_3D ( 'NONE', #288, #80, #282 ) ;
#137 = AXIS2_PLACEMENT_3D ( 'NONE', #29, #234, #2 ) ;
#138 = FACE_OUTER_BOUND ( 'NONE', #180, .T. ) ;
#139 = VERTEX_POINT ( 'NONE', #255 ) ;
#140 = FACE_BOUND ( 'NONE', #99, .T. ) ;
#141 = ORIENTED_EDGE ( 'NONE', *, *, #278, .T. ) ;
#142 = COORDINATED_UNIVERSAL_TIME_OFFSET ( 9, 0, .AHEAD. ) ;
#143 = CARTESIAN_POINT ( 'NONE',  ( -8.000000000000000000, 9.797174393178825657E-16, 40.00000000000000000 ) ) ;
#144 = SECURITY_CLASSIFICATION ( '', '', #11 ) ;
#145 = ORIENTED_EDGE ( 'NONE', *, *, #262, .F. ) ;
#146 = APPROVAL ( #4, 'UNSPECIFIED' ) ;
#147 = DIRECTION ( 'NONE',  ( 1.000000000000000000, 0.000000000000000000, 0.000000000000000000 ) ) ;
#148 = VERTEX_POINT ( 'NONE', #109 ) ;
#149 = FACE_OUTER_BOUND ( 'NONE', #96, .T. ) ;
#150 = VERTEX_POINT ( 'NONE', #182 ) ;
#151 = ORGANIZATION ( 'UNSPECIFIED', 'UNSPECIFIED', '' ) ;
#152 = DATE_AND_TIME ( #54, #46 ) ;
#153 = CARTESIAN_POINT ( 'NONE',  ( 0.000000000000000000, 0.000000000000000000, 40.00000000000000000 ) ) ;
#154 = DIRECTION ( 'NONE',  ( 1.000000000000000000, 0.000000000000000000, 0.000000000000000000 ) ) ;
#155 = APPLICATION_PROTOCOL_DEFINITION ( 'international standard', 'config_control_design', 1994, #60 ) ;
#156 = CC_DESIGN_PERSON_AND_ORGANIZATION_ASSIGNMENT ( #67, #321, ( #144 ) ) ;
#157 = CC_DESIGN_APPROVAL ( #326, ( #144 ) ) ;
#158 = CIRCLE ( 'NONE', #5, 13.00000000000000000 ) ;
#159 = DIRECTION ( 'NONE',  ( 1.000000000000000000, 0.000000000000000000, 0.000000000000000000 ) ) ;
#160 = PERSON_AND_ORGANIZATION_ROLE ( 'design_owner' ) ;
#161 = AXIS2_PLACEMENT_3D ( 'NONE', #325, #277, #47 ) ;
#162 = DIRECTION ( 'NONE',  ( 0.000000000000000000, 0.000000000000000000, 1.000000000000000000 ) ) ;
#163 = ORIENTED_EDGE ( 'NONE', *, *, #319, .T. ) ;
#164 = DIRECTION ( 'NONE',  ( 0.000000000000000000, 0.000000000000000000, 1.000000000000000000 ) ) ;
#165 = ORIENTED_EDGE ( 'NONE', *, *, #122, .T. ) ;
#166 = DATE_AND_TIME ( #88, #257 ) ;
#167 = ADVANCED_FACE ( 'NONE', ( #306 ), #28, .T. ) ;
#168 = CARTESIAN_POINT ( 'NONE',  ( 0.000000000000000000, 0.000000000000000000, 25.00000000000000000 ) ) ;
#169 = DIRECTION ( 'NONE',  ( 1.000000000000000000, 0.000000000000000000, 0.000000000000000000 ) ) ;
#170 = VERTEX_POINT ( 'NONE', #114 ) ;
#171 = CIRCLE ( 'NONE', #191, 13.00000000000000000 ) ;
#172 =( LENGTH_UNIT ( ) NAMED_UNIT ( * ) SI_UNIT ( .MILLI., .METRE. ) );
#173 = EDGE_CURVE ( 'NONE', #42, #181, #171, .T. ) ;
#174 = ORIENTED_EDGE ( 'NONE', *, *, #173, .T. ) ;
#175 = CARTESIAN_POINT ( 'NONE',  ( 0.000000000000000000, 0.000000000000000000, 0.000000000000000000 ) ) ;
#176 = CARTESIAN_POINT ( 'NONE',  ( -25.00000000000000000, 3.061616997868383043E-15, 0.000000000000000000 ) ) ;
#177 = CC_DESIGN_PERSON_AND_ORGANIZATION_ASSIGNMENT ( #83, #110, ( #132 ) ) ;
#178 = MECHANICAL_CONTEXT ( 'NONE', #275, 'mechanical' ) ;
#179 = VECTOR ( 'NONE', #36, 1000.000000000000000 ) ;
#180 = EDGE_LOOP ( 'NONE', ( #165, #126 ) ) ;
#181 = VERTEX_POINT ( 'NONE', #119 ) ;
#182 = CARTESIAN_POINT ( 'NONE',  ( -8.000000000000000000, 9.797174393178825657E-16, 25.00000000000000000 ) ) ;
#183 = CYLINDRICAL_SURFACE ( 'NONE', #129, 13.00000000000000000 ) ;
#184 = CARTESIAN_POINT ( 'NONE',  ( 8.000000000000000000, 0.000000000000000000, 0.000000000000000000 ) ) ;
#185 = EDGE_CURVE ( 'NONE', #85, #20, #214, .T. ) ;
#186 = DIRECTION ( 'NONE',  ( 0.000000000000000000, 0.000000000000000000, 1.000000000000000000 ) ) ;
#187 =( GEOMETRIC_REPRESENTATION_CONTEXT ( 3 ) GLOBAL_UNCERTAINTY_ASSIGNED_CONTEXT ( ( #34 ) ) GLOBAL_UNIT_ASSIGNED_CONTEXT ( ( #172, #272, #328 ) ) REPRESENTATION_CONTEXT ( 'NONE', 'WORKASPACE' ) );
#188 = DIRECTION ( 'NONE',  ( 1.000000000000000000, 0.000000000000000000, 0.000000000000000000 ) ) ;
#189 = PERSON_AND_ORGANIZATION ( #26, #151 ) ;
#190 = FACE_OUTER_BOUND ( 'NONE', #236, .T. ) ;
#191 = AXIS2_PLACEMENT_3D ( 'NONE', #65, #269, #188 ) ;
#192 = EDGE_CURVE ( 'NONE', #73, #150, #317, .T. ) ;
#193 = CARTESIAN_POINT ( 'NONE',  ( -13.00000000000000000, 1.592040838891559095E-15, 25.00000000000000000 ) ) ;
#194 = ORIENTED_EDGE ( 'NONE', *, *, #59, .F. ) ;
#195 = AXIS2_PLACEMENT_3D ( 'NONE', #324, #50, #199 ) ;
#196 = ORIENTED_EDGE ( 'NONE', *, *, #207, .F. ) ;
#197 = AXIS2_PLACEMENT_3D ( 'NONE', #261, #39, #295 ) ;
#198 = ORIENTED_EDGE ( 'NONE', *, *, #284, .F. ) ;
#199 = DIRECTION ( 'NONE',  ( 1.000000000000000000, 0.000000000000000000, 0.000000000000000000 ) ) ;
#200 = APPROVAL_PERSON_ORGANIZATION ( #264, #326, #210 ) ;
#201 = AXIS2_PLACEMENT_3D ( 'NONE', #184, #116, #291 ) ;
#202 = CARTESIAN_POINT ( 'NONE',  ( 25.00000000000000000, 0.000000000000000000, 0.000000000000000000 ) ) ;
#203 = CARTESIAN_POINT ( 'NONE',  ( 13.00000000000000000, 0.000000000000000000, 125.0000000000000000 ) ) ;
#204 = VECTOR ( 'NONE', #61, 1000.000000000000000 ) ;
#205 = PERSON_AND_ORGANIZATION ( #26, #151 ) ;
#206 = CIRCLE ( 'NONE', #37, 8.000000000000000000 ) ;
#207 = EDGE_CURVE ( 'NONE', #20, #25, #320, .T. ) ;
#208 = DIRECTION ( 'NONE',  ( 1.000000000000000000, 0.000000000000000000, 0.000000000000000000 ) ) ;
#209 = ORIENTED_EDGE ( 'NONE', *, *, #319, .F. ) ;
#210 = APPROVAL_ROLE ( '' ) ;
#211 = LINE ( 'NONE', #290, #179 ) ;
#212 = AXIS2_PLACEMENT_3D ( 'NONE', #250, #221, #21 ) ;
#213 = ORIENTED_EDGE ( 'NONE', *, *, #207, .T. ) ;
#214 = CIRCLE ( 'NONE', #253, 25.00000000000000000 ) ;
#215 = CLOSED_SHELL ( 'NONE', ( #134, #14, #299, #1, #274, #167, #33, #100, #292 ) ) ;
#216 = CYLINDRICAL_SURFACE ( 'NONE', #212, 8.000000000000000000 ) ;
#217 = AXIS2_PLACEMENT_3D ( 'NONE', #266, #310, #41 ) ;
#218 = EDGE_CURVE ( 'NONE', #24, #139, #53, .T. ) ;
#219 = CARTESIAN_POINT ( 'NONE',  ( 0.000000000000000000, 0.000000000000000000, 40.00000000000000000 ) ) ;
#220 = CIRCLE ( 'NONE', #271, 8.000000000000000000 ) ;
#221 = DIRECTION ( 'NONE',  ( 0.000000000000000000, 0.000000000000000000, 1.000000000000000000 ) ) ;
#222 = ORIENTED_EDGE ( 'NONE', *, *, #78, .F. ) ;
#223 = EDGE_CURVE ( 'NONE', #148, #73, #206, .T. ) ;
#224 = CIRCLE ( 'NONE', #68, 13.00000000000000000 ) ;
#225 = ORIENTED_EDGE ( 'NONE', *, *, #232, .T. ) ;
#226 = PERSON_AND_ORGANIZATION ( #26, #151 ) ;
#227 = CC_DESIGN_PERSON_AND_ORGANIZATION_ASSIGNMENT ( #294, #297, ( #249 ) ) ;
#228 = CARTESIAN_POINT ( 'NONE',  ( 0.000000000000000000, 0.000000000000000000, 25.00000000000000000 ) ) ;
#229 = CC_DESIGN_APPROVAL ( #146, ( #132 ) ) ;
#230 = CIRCLE ( 'NONE', #197, 25.00000000000000000 ) ;
#231 = DIRECTION ( 'NONE',  ( 1.000000000000000000, 0.000000000000000000, 0.000000000000000000 ) ) ;
#232 = EDGE_CURVE ( 'NONE', #252, #25, #318, .T. ) ;
#233 = CIRCLE ( 'NONE', #55, 8.000000000000000000 ) ;
#234 = DIRECTION ( 'NONE',  ( 0.000000000000000000, 0.000000000000000000, 1.000000000000000000 ) ) ;
#235 = CARTESIAN_POINT ( 'NONE',  ( -13.00000000000000000, 1.592040838891559095E-15, 40.00000000000000000 ) ) ;
#236 = EDGE_LOOP ( 'NONE', ( #240, #314, #70, #194 ) ) ;
#237 = AXIS2_PLACEMENT_3D ( 'NONE', #168, #293, #10 ) ;
#238 = DATE_TIME_ROLE ( 'classification_date' ) ;
#239 = PLANE ( 'NONE',  #258 ) ;
#240 = ORIENTED_EDGE ( 'NONE', *, *, #97, .F. ) ;
#241 = CIRCLE ( 'NONE', #95, 25.00000000000000000 ) ;
#242 = CC_DESIGN_DATE_AND_TIME_ASSIGNMENT ( #166, #238, ( #144 ) ) ;
#243 = ORIENTED_EDGE ( 'NONE', *, *, #223, .F. ) ;
#244 = CARTESIAN_POINT ( 'NONE',  ( -25.00000000000000000, 3.061616997868383043E-15, 40.00000000000000000 ) ) ;
#245 = EDGE_LOOP ( 'NONE', ( #198, #327, #112, #174 ) ) ;
#246 = PERSON_AND_ORGANIZATION_ROLE ( 'creator' ) ;
#247 = EDGE_LOOP ( 'NONE', ( #117, #64, #163, #94 ) ) ;
#248 = FACE_BOUND ( 'NONE', #91, .T. ) ;
#249 = PRODUCT_DEFINITION_FORMATION_WITH_SPECIFIED_SOURCE ( 'ANY', '', #302, .NOT_KNOWN. ) ;
#250 = CARTESIAN_POINT ( 'NONE',  ( 0.000000000000000000, 0.000000000000000000, 40.00000000000000000 ) ) ;
#251 = DIRECTION ( 'NONE',  ( -1.000000000000000000, 0.000000000000000000, 0.000000000000000000 ) ) ;
#252 = VERTEX_POINT ( 'NONE', #270 ) ;
#253 = AXIS2_PLACEMENT_3D ( 'NONE', #87, #162, #169 ) ;
#254 = DIRECTION ( 'NONE',  ( 1.000000000000000000, 0.000000000000000000, 0.000000000000000000 ) ) ;
#255 = CARTESIAN_POINT ( 'NONE',  ( 13.00000000000000000, 0.000000000000000000, 25.00000000000000000 ) ) ;
#256 = ADVANCED_BREP_SHAPE_REPRESENTATION ( 'bj400-16125', ( #259, #22 ), #187 ) ;
#257 = LOCAL_TIME ( 8, 52, 18.00000000000000000, #120 ) ;
#258 = AXIS2_PLACEMENT_3D ( 'NONE', #48, #98, #251 ) ;
#259 = MANIFOLD_SOLID_BREP ( 'Imported1', #215 ) ;
#260 = DIRECTION ( 'NONE',  ( 0.000000000000000000, 0.000000000000000000, 1.000000000000000000 ) ) ;
#261 = CARTESIAN_POINT ( 'NONE',  ( 0.000000000000000000, 0.000000000000000000, 125.0000000000000000 ) ) ;
#262 = EDGE_CURVE ( 'NONE', #25, #252, #230, .T. ) ;
#263 = LINE ( 'NONE', #235, #74 ) ;
#264 = PERSON_AND_ORGANIZATION ( #26, #151 ) ;
#265 = PRODUCT_RELATED_PRODUCT_CATEGORY ( 'detail', '', ( #302 ) ) ;
#266 = CARTESIAN_POINT ( 'NONE',  ( 0.000000000000000000, 0.000000000000000000, 125.0000000000000000 ) ) ;
#267 = ORIENTED_EDGE ( 'NONE', *, *, #97, .T. ) ;
#268 = APPROVAL_STATUS ( 'not_yet_approved' ) ;
#269 = DIRECTION ( 'NONE',  ( 0.000000000000000000, 0.000000000000000000, 1.000000000000000000 ) ) ;
#270 = CARTESIAN_POINT ( 'NONE',  ( 25.00000000000000000, 0.000000000000000000, 125.0000000000000000 ) ) ;
#271 = AXIS2_PLACEMENT_3D ( 'NONE', #307, #57, #159 ) ;
#272 =( NAMED_UNIT ( * ) PLANE_ANGLE_UNIT ( ) SI_UNIT ( $, .RADIAN. ) );
#273 = DIRECTION ( 'NONE',  ( 0.000000000000000000, 0.000000000000000000, 1.000000000000000000 ) ) ;
#274 = ADVANCED_FACE ( 'NONE', ( #17, #140 ), #82, .F. ) ;
#275 = APPLICATION_CONTEXT ( 'configuration controlled 3d designs of mechanical parts and assemblies' ) ;
#276 = ORIENTED_EDGE ( 'NONE', *, *, #223, .T. ) ;
#277 = DIRECTION ( 'NONE',  ( 0.000000000000000000, 0.000000000000000000, -1.000000000000000000 ) ) ;
#278 = EDGE_CURVE ( 'NONE', #85, #252, #211, .T. ) ;
#279 = EDGE_LOOP ( 'NONE', ( #49, #18 ) ) ;
#280 = ORIENTED_EDGE ( 'NONE', *, *, #173, .F. ) ;
#281 = CIRCLE ( 'NONE', #136, 8.000000000000000000 ) ;
#282 = DIRECTION ( 'NONE',  ( 1.000000000000000000, 0.000000000000000000, 0.000000000000000000 ) ) ;
#283 = APPROVAL_STATUS ( 'not_yet_approved' ) ;
#284 = EDGE_CURVE ( 'NONE', #24, #181, #263, .T. ) ;
#285 = DIRECTION ( 'NONE',  ( 0.000000000000000000, 0.000000000000000000, 1.000000000000000000 ) ) ;
#286 = APPROVAL_ROLE ( '' ) ;
#287 = PRODUCT_DEFINITION_SHAPE ( 'NONE', 'NONE',  #132 ) ;
#288 = CARTESIAN_POINT ( 'NONE',  ( 0.000000000000000000, 0.000000000000000000, 0.000000000000000000 ) ) ;
#289 = LOCAL_TIME ( 8, 52, 18.00000000000000000, #27 ) ;
#290 = CARTESIAN_POINT ( 'NONE',  ( 25.00000000000000000, 0.000000000000000000, 40.00000000000000000 ) ) ;
#291 = DIRECTION ( 'NONE',  ( 1.000000000000000000, 0.000000000000000000, 0.000000000000000000 ) ) ;
#292 = ADVANCED_FACE ( 'NONE', ( #38, #138 ), #239, .F. ) ;
#293 = DIRECTION ( 'NONE',  ( 0.000000000000000000, 0.000000000000000000, 1.000000000000000000 ) ) ;
#294 = PERSON_AND_ORGANIZATION ( #26, #151 ) ;
#295 = DIRECTION ( 'NONE',  ( 1.000000000000000000, 0.000000000000000000, 0.000000000000000000 ) ) ;
#296 = SHAPE_DEFINITION_REPRESENTATION ( #287, #256 ) ;
#297 = PERSON_AND_ORGANIZATION_ROLE ( 'design_supplier' ) ;
#298 = CARTESIAN_POINT ( 'NONE',  ( -25.00000000000000000, 3.061616997868383043E-15, 125.0000000000000000 ) ) ;
#299 = ADVANCED_FACE ( 'NONE', ( #190 ), #216, .F. ) ;
#300 = CC_DESIGN_PERSON_AND_ORGANIZATION_ASSIGNMENT ( #107, #160, ( #302 ) ) ;
#301 = ORIENTED_EDGE ( 'NONE', *, *, #278, .F. ) ;
#302 = PRODUCT ( 'bj400-16125', 'bj400-16125', '', ( #178 ) ) ;
#303 = CARTESIAN_POINT ( 'NONE',  ( 0.000000000000000000, 0.000000000000000000, 125.0000000000000000 ) ) ;
#304 = FACE_OUTER_BOUND ( 'NONE', #44, .T. ) ;
#305 = AXIS2_PLACEMENT_3D ( 'NONE', #219, #273, #147 ) ;
#306 = FACE_OUTER_BOUND ( 'NONE', #115, .T. ) ;
#307 = CARTESIAN_POINT ( 'NONE',  ( 0.000000000000000000, 0.000000000000000000, 25.00000000000000000 ) ) ;
#308 = DIRECTION ( 'NONE',  ( 0.000000000000000000, 0.000000000000000000, 1.000000000000000000 ) ) ;
#309 = VECTOR ( 'NONE', #13, 1000.000000000000000 ) ;
#310 = DIRECTION ( 'NONE',  ( 0.000000000000000000, 0.000000000000000000, 1.000000000000000000 ) ) ;
#311 = DESIGN_CONTEXT ( 'detailed design', #60, 'design' ) ;
#312 = ORIENTED_EDGE ( 'NONE', *, *, #192, .F. ) ;
#313 = CARTESIAN_POINT ( 'NONE',  ( 0.000000000000000000, 0.000000000000000000, 0.000000000000000000 ) ) ;
#314 = ORIENTED_EDGE ( 'NONE', *, *, #192, .T. ) ;
#315 = APPROVAL_DATE_TIME ( #113, #86 ) ;
#316 = APPROVAL_PERSON_ORGANIZATION ( #226, #86, #286 ) ;
#317 = LINE ( 'NONE', #143, #111 ) ;
#318 = CIRCLE ( 'NONE', #217, 25.00000000000000000 ) ;
#319 = EDGE_CURVE ( 'NONE', #181, #42, #224, .T. ) ;
#320 = LINE ( 'NONE', #244, #309 ) ;
#321 = PERSON_AND_ORGANIZATION_ROLE ( 'classification_officer' ) ;
#322 = ORIENTED_EDGE ( 'NONE', *, *, #84, .T. ) ;
#323 = APPROVAL_PERSON_ORGANIZATION ( #205, #146, #35 ) ;
#324 = CARTESIAN_POINT ( 'NONE',  ( 0.000000000000000000, 0.000000000000000000, 40.00000000000000000 ) ) ;
#325 = CARTESIAN_POINT ( 'NONE',  ( 25.00000000000000000, 0.000000000000000000, 125.0000000000000000 ) ) ;
#326 = APPROVAL ( #268, 'UNSPECIFIED' ) ;
#327 = ORIENTED_EDGE ( 'NONE', *, *, #122, .F. ) ;
#328 =( NAMED_UNIT ( * ) SI_UNIT ( $, .STERADIAN. ) SOLID_ANGLE_UNIT ( ) );
#329 = CYLINDRICAL_SURFACE ( 'NONE', #195, 25.00000000000000000 ) ;
ENDSEC;
END-ISO-10303-21;
