ISO-10303-21;
HEADER;
FILE_DESCRIPTION (( 'STEP AP203' ),
    '1' );
FILE_NAME ('bj720-06001.STEP',
    '2021-10-24T23:59:06',
    ( '' ),
    ( '' ),
    'SwSTEP 2.0',
    'SolidWorks 2020',
    '' );
FILE_SCHEMA (( 'CONFIG_CONTROL_DESIGN' ));
ENDSEC;

DATA;
#1 =( NAMED_UNIT ( * ) SI_UNIT ( $, .STERADIAN. ) SOLID_ANGLE_UNIT ( ) );
#2 = CARTESIAN_POINT ( 'NONE',  ( -1.845299461620750314, 2.966890238292123075E-16, 0.000000000000000000 ) ) ;
#3 =( NAMED_UNIT ( * ) PLANE_ANGLE_UNIT ( ) SI_UNIT ( $, .RADIAN. ) );
#4 = ORIENTED_EDGE ( 'NONE', *, *, #135, .F. ) ;
#5 = AXIS2_PLACEMENT_3D ( 'NONE', #164, #109, #275 ) ;
#6 = AXIS2_PLACEMENT_3D ( 'NONE', #146, #253, #60 ) ;
#7 = EDGE_LOOP ( 'NONE', ( #4, #241, #201, #132 ) ) ;
#8 = EDGE_CURVE ( 'NONE', #85, #197, #352, .T. ) ;
#9 = CIRCLE ( 'NONE', #326, 3.000000000000000000 ) ;
#10 = DATE_AND_TIME ( #64, #229 ) ;
#11 = APPROVAL_ROLE ( '' ) ;
#12 = CARTESIAN_POINT ( 'NONE',  ( 0.000000000000000000, 0.000000000000000000, 18.00000000000000000 ) ) ;
#13 = CARTESIAN_POINT ( 'NONE',  ( -3.000000000000000000, 3.673940397442059868E-16, 2.000000000000000000 ) ) ;
#14 = VECTOR ( 'NONE', #238, 1000.000000000000114 ) ;
#15 = EDGE_CURVE ( 'NONE', #165, #106, #198, .T. ) ;
#16 = CARTESIAN_POINT ( 'NONE',  ( 0.000000000000000000, 0.000000000000000000, 50.00000000000000000 ) ) ;
#17 = ORIENTED_EDGE ( 'NONE', *, *, #102, .T. ) ;
#18 = FACE_OUTER_BOUND ( 'NONE', #7, .T. ) ;
#19 = CARTESIAN_POINT ( 'NONE',  ( -3.000000000000000000, 0.000000000000000000, 18.00000000000000000 ) ) ;
#20 = CARTESIAN_POINT ( 'NONE',  ( 0.000000000000000000, 0.000000000000000000, 2.000000000000000000 ) ) ;
#21 = DIRECTION ( 'NONE',  ( 1.000000000000000000, 0.000000000000000000, 0.000000000000000000 ) ) ;
#22 = VECTOR ( 'NONE', #189, 1000.000000000000000 ) ;
#23 = DIRECTION ( 'NONE',  ( 1.000000000000000000, 0.000000000000000000, 0.000000000000000000 ) ) ;
#24 = DIRECTION ( 'NONE',  ( 0.000000000000000000, 0.000000000000000000, 1.000000000000000000 ) ) ;
#25 = CARTESIAN_POINT ( 'NONE',  ( 0.000000000000000000, 0.000000000000000000, 2.000000000000000000 ) ) ;
#26 = DIRECTION ( 'NONE',  ( 0.4999999999999998890, 0.000000000000000000, 0.8660254037844387076 ) ) ;
#27 = PRODUCT_RELATED_PRODUCT_CATEGORY ( 'detail', '', ( #167 ) ) ;
#28 = APPLICATION_CONTEXT ( 'configuration controlled 3d designs of mechanical parts and assemblies' ) ;
#29 = EDGE_LOOP ( 'NONE', ( #17, #83 ) ) ;
#30 = ADVANCED_FACE ( 'NONE', ( #100 ), #297, .T. ) ;
#31 = AXIS2_PLACEMENT_3D ( 'NONE', #97, #103, #315 ) ;
#32 = ADVANCED_FACE ( 'NONE', ( #18 ), #141, .T. ) ;
#33 = VERTEX_POINT ( 'NONE', #128 ) ;
#34 = CC_DESIGN_APPROVAL ( #290, ( #54 ) ) ;
#35 = ORIENTED_EDGE ( 'NONE', *, *, #338, .T. ) ;
#36 = CIRCLE ( 'NONE', #223, 3.000000000000000000 ) ;
#37 = DIRECTION ( 'NONE',  ( 0.000000000000000000, 0.000000000000000000, 1.000000000000000000 ) ) ;
#38 = CALENDAR_DATE ( 2021, 25, 10 ) ;
#39 = DIRECTION ( 'NONE',  ( 1.000000000000000000, 0.000000000000000000, 0.000000000000000000 ) ) ;
#40 = DIRECTION ( 'NONE',  ( 1.000000000000000000, 0.000000000000000000, 0.000000000000000000 ) ) ;
#41 = DIRECTION ( 'NONE',  ( 0.000000000000000000, 0.000000000000000000, 1.000000000000000000 ) ) ;
#42 = VERTEX_POINT ( 'NONE', #221 ) ;
#43 = DIRECTION ( 'NONE',  ( 0.000000000000000000, 0.000000000000000000, 1.000000000000000000 ) ) ;
#44 = DIRECTION ( 'NONE',  ( 1.000000000000000000, 0.000000000000000000, 0.000000000000000000 ) ) ;
#45 = EDGE_CURVE ( 'NONE', #322, #314, #174, .T. ) ;
#46 = DIRECTION ( 'NONE',  ( 0.000000000000000000, 0.000000000000000000, 1.000000000000000000 ) ) ;
#47 = CARTESIAN_POINT ( 'NONE',  ( 3.000000000000000000, 0.000000000000000000, 50.00000000000000000 ) ) ;
#48 = CARTESIAN_POINT ( 'NONE',  ( 0.000000000000000000, 0.000000000000000000, 2.000000000000000000 ) ) ;
#49 = CIRCLE ( 'NONE', #348, 1.845299461620740100 ) ;
#50 = CC_DESIGN_DATE_AND_TIME_ASSIGNMENT ( #119, #59, ( #52 ) ) ;
#51 = PERSON ( 'UNSPECIFIED', 'UNSPECIFIED', 'UNSPECIFIED', ('UNSPECIFIED'), ('UNSPECIFIED'), ('UNSPECIFIED') ) ;
#52 = SECURITY_CLASSIFICATION ( '', '', #283 ) ;
#53 = PRODUCT_DEFINITION_SHAPE ( 'NONE', 'NONE',  #54 ) ;
#54 = PRODUCT_DEFINITION ( 'UNKNOWN', '', #76, #204 ) ;
#55 = VECTOR ( 'NONE', #77, 1000.000000000000000 ) ;
#56 = ADVANCED_FACE ( 'NONE', ( #350 ), #292, .F. ) ;
#57 = DATE_AND_TIME ( #87, #193 ) ;
#58 = EDGE_CURVE ( 'NONE', #165, #265, #301, .T. ) ;
#59 = DATE_TIME_ROLE ( 'classification_date' ) ;
#60 = DIRECTION ( 'NONE',  ( 1.000000000000000000, 0.000000000000000000, 0.000000000000000000 ) ) ;
#61 = AXIS2_PLACEMENT_3D ( 'NONE', #259, #37, #340 ) ;
#62 = CALENDAR_DATE ( 2021, 25, 10 ) ;
#63 = ORIENTED_EDGE ( 'NONE', *, *, #88, .F. ) ;
#64 = CALENDAR_DATE ( 2021, 25, 10 ) ;
#65 = ORIENTED_EDGE ( 'NONE', *, *, #139, .F. ) ;
#66 = EDGE_CURVE ( 'NONE', #42, #250, #73, .T. ) ;
#67 = CC_DESIGN_SECURITY_CLASSIFICATION ( #52, ( #76 ) ) ;
#68 = AXIS2_PLACEMENT_3D ( 'NONE', #20, #244, #289 ) ;
#69 = FACE_OUTER_BOUND ( 'NONE', #81, .T. ) ;
#70 = LINE ( 'NONE', #298, #22 ) ;
#71 = DIRECTION ( 'NONE',  ( 0.000000000000000000, 0.000000000000000000, 1.000000000000000000 ) ) ;
#72 = DIRECTION ( 'NONE',  ( 0.000000000000000000, 0.000000000000000000, 1.000000000000000000 ) ) ;
#73 = CIRCLE ( 'NONE', #278, 1.500000000000000000 ) ;
#74 = VECTOR ( 'NONE', #26, 1000.000000000000000 ) ;
#75 = CARTESIAN_POINT ( 'NONE',  ( 0.000000000000000000, 0.000000000000000000, 0.000000000000000000 ) ) ;
#76 = PRODUCT_DEFINITION_FORMATION_WITH_SPECIFIED_SOURCE ( 'ANY', '', #167, .NOT_KNOWN. ) ;
#77 = DIRECTION ( 'NONE',  ( -0.4999999999999998890, 6.123233995736764803E-17, 0.8660254037844387076 ) ) ;
#78 = AXIS2_PLACEMENT_3D ( 'NONE', #160, #262, #40 ) ;
#79 = CONICAL_SURFACE ( 'NONE', #246, 3.000000000000000000, 0.5235987755982995928 ) ;
#80 = APPROVAL ( #307, 'UNSPECIFIED' ) ;
#81 = EDGE_LOOP ( 'NONE', ( #276, #331 ) ) ;
#82 = CARTESIAN_POINT ( 'NONE',  ( 1.500000000000000000, 0.000000000000000000, 20.00000000000000000 ) ) ;
#83 = ORIENTED_EDGE ( 'NONE', *, *, #135, .T. ) ;
#84 = CALENDAR_DATE ( 2021, 25, 10 ) ;
#85 = VERTEX_POINT ( 'NONE', #13 ) ;
#86 = COORDINATED_UNIVERSAL_TIME_OFFSET ( 9, 0, .AHEAD. ) ;
#87 = CALENDAR_DATE ( 2021, 25, 10 ) ;
#88 = EDGE_CURVE ( 'NONE', #33, #197, #158, .T. ) ;
#89 = PERSON_AND_ORGANIZATION_ROLE ( 'classification_officer' ) ;
#90 = ADVANCED_FACE ( 'NONE', ( #286 ), #79, .T. ) ;
#91 = ORGANIZATION ( 'UNSPECIFIED', 'UNSPECIFIED', '' ) ;
#92 = CARTESIAN_POINT ( 'NONE',  ( -1.500000000000000000, 1.836970198721029934E-16, 20.00000000000000000 ) ) ;
#93 = FACE_OUTER_BOUND ( 'NONE', #29, .T. ) ;
#94 = ADVANCED_FACE ( 'NONE', ( #299 ), #157, .T. ) ;
#95 = DIRECTION ( 'NONE',  ( 0.000000000000000000, 0.000000000000000000, -1.000000000000000000 ) ) ;
#96 = DIRECTION ( 'NONE',  ( 0.000000000000000000, 0.000000000000000000, 1.000000000000000000 ) ) ;
#97 = CARTESIAN_POINT ( 'NONE',  ( 0.000000000000000000, 0.000000000000000000, 18.00000000000000000 ) ) ;
#98 = DIRECTION ( 'NONE',  ( -1.000000000000000000, 0.000000000000000000, 0.000000000000000000 ) ) ;
#99 = ORIENTED_EDGE ( 'NONE', *, *, #341, .T. ) ;
#100 = FACE_OUTER_BOUND ( 'NONE', #325, .T. ) ;
#101 = EDGE_LOOP ( 'NONE', ( #272, #99, #295, #281 ) ) ;
#102 = EDGE_CURVE ( 'NONE', #329, #269, #49, .T. ) ;
#103 = DIRECTION ( 'NONE',  ( 0.000000000000000000, 0.000000000000000000, -1.000000000000000000 ) ) ;
#104 = DIRECTION ( 'NONE',  ( 0.5000000000000007772, 6.123233995736775897E-17, -0.8660254037844381525 ) ) ;
#105 = ADVANCED_FACE ( 'NONE', ( #153 ), #264, .F. ) ;
#106 = VERTEX_POINT ( 'NONE', #2 ) ;
#107 = DIRECTION ( 'NONE',  ( 0.000000000000000000, 0.000000000000000000, 1.000000000000000000 ) ) ;
#108 = EDGE_CURVE ( 'NONE', #197, #33, #214, .T. ) ;
#109 = DIRECTION ( 'NONE',  ( 0.000000000000000000, 0.000000000000000000, 1.000000000000000000 ) ) ;
#110 = AXIS2_PLACEMENT_3D ( 'NONE', #126, #71, #300 ) ;
#111 = ORIENTED_EDGE ( 'NONE', *, *, #139, .T. ) ;
#112 = PERSON_AND_ORGANIZATION ( #51, #91 ) ;
#113 = DIRECTION ( 'NONE',  ( 0.000000000000000000, 0.000000000000000000, 1.000000000000000000 ) ) ;
#114 = ORIENTED_EDGE ( 'NONE', *, *, #237, .T. ) ;
#115 = PERSON_AND_ORGANIZATION ( #51, #91 ) ;
#116 = ORIENTED_EDGE ( 'NONE', *, *, #102, .F. ) ;
#117 = ADVANCED_FACE ( 'NONE', ( #227 ), #182, .T. ) ;
#118 = ORIENTED_EDGE ( 'NONE', *, *, #155, .F. ) ;
#119 = DATE_AND_TIME ( #84, #258 ) ;
#120 = AXIS2_PLACEMENT_3D ( 'NONE', #234, #220, #21 ) ;
#121 = CARTESIAN_POINT ( 'NONE',  ( 0.000000000000000000, 0.000000000000000000, 18.00000000000000000 ) ) ;
#122 = SHAPE_DEFINITION_REPRESENTATION ( #53, #344 ) ;
#123 = FACE_BOUND ( 'NONE', #178, .T. ) ;
#124 = ORIENTED_EDGE ( 'NONE', *, *, #108, .F. ) ;
#125 = APPROVAL_PERSON_ORGANIZATION ( #147, #261, #11 ) ;
#126 = CARTESIAN_POINT ( 'NONE',  ( 0.000000000000000000, 0.000000000000000000, 14.00000000000000000 ) ) ;
#127 = PLANE ( 'NONE',  #212 ) ;
#128 = CARTESIAN_POINT ( 'NONE',  ( 3.000000000000000000, 0.000000000000000000, 18.00000000000000000 ) ) ;
#129 = EDGE_LOOP ( 'NONE', ( #226, #116, #277, #336 ) ) ;
#130 = VECTOR ( 'NONE', #72, 1000.000000000000000 ) ;
#131 = CARTESIAN_POINT ( 'NONE',  ( 0.000000000000000000, 0.000000000000000000, 20.00000000000000000 ) ) ;
#132 = ORIENTED_EDGE ( 'NONE', *, *, #208, .F. ) ;
#133 = AXIS2_PLACEMENT_3D ( 'NONE', #151, #288, #318 ) ;
#134 = LINE ( 'NONE', #353, #251 ) ;
#135 = EDGE_CURVE ( 'NONE', #269, #329, #293, .T. ) ;
#136 = ORIENTED_EDGE ( 'NONE', *, *, #173, .T. ) ;
#137 = EDGE_LOOP ( 'NONE', ( #186, #188, #217, #180 ) ) ;
#138 = CIRCLE ( 'NONE', #268, 1.500000000000000000 ) ;
#139 = EDGE_CURVE ( 'NONE', #42, #322, #247, .T. ) ;
#140 = CARTESIAN_POINT ( 'NONE',  ( 1.500000000000000000, 0.000000000000000000, 50.00000000000000000 ) ) ;
#141 = CONICAL_SURFACE ( 'NONE', #31, 3.000000000000000000, 0.5235987755982995928 ) ;
#142 = EDGE_LOOP ( 'NONE', ( #346, #308, #111, #248 ) ) ;
#143 = PERSON_AND_ORGANIZATION ( #51, #91 ) ;
#144 = DIRECTION ( 'NONE',  ( 1.000000000000000000, 0.000000000000000000, 0.000000000000000000 ) ) ;
#145 = CONICAL_SURFACE ( 'NONE', #176, 3.000000000000000000, 0.5235987755982987046 ) ;
#146 = CARTESIAN_POINT ( 'NONE',  ( 0.000000000000000000, 0.000000000000000000, 18.00000000000000000 ) ) ;
#147 = PERSON_AND_ORGANIZATION ( #51, #91 ) ;
#148 = DATE_AND_TIME ( #38, #291 ) ;
#149 = CC_DESIGN_PERSON_AND_ORGANIZATION_ASSIGNMENT ( #252, #285, ( #167 ) ) ;
#150 = PERSON_AND_ORGANIZATION_ROLE ( 'creator' ) ;
#151 = CARTESIAN_POINT ( 'NONE',  ( 1.845299461620740100, 0.000000000000000000, 20.00000000000000000 ) ) ;
#152 = CARTESIAN_POINT ( 'NONE',  ( -3.000000000000000000, 3.673940397442059868E-16, 50.00000000000000000 ) ) ;
#153 = FACE_OUTER_BOUND ( 'NONE', #142, .T. ) ;
#154 = DIRECTION ( 'NONE',  ( 1.000000000000000000, 0.000000000000000000, 0.000000000000000000 ) ) ;
#155 = EDGE_CURVE ( 'NONE', #314, #322, #138, .T. ) ;
#156 = CARTESIAN_POINT ( 'NONE',  ( 0.000000000000000000, 0.000000000000000000, 20.00000000000000000 ) ) ;
#157 = CONICAL_SURFACE ( 'NONE', #68, 3.000000000000000000, 0.5235987755982987046 ) ;
#158 = CIRCLE ( 'NONE', #6, 3.000000000000000000 ) ;
#159 = CARTESIAN_POINT ( 'NONE',  ( -3.000000000000000000, 3.673940397442059868E-16, 18.00000000000000000 ) ) ;
#160 = CARTESIAN_POINT ( 'NONE',  ( 0.000000000000000000, 0.000000000000000000, 0.000000000000000000 ) ) ;
#161 = ORIENTED_EDGE ( 'NONE', *, *, #45, .F. ) ;
#162 = CARTESIAN_POINT ( 'NONE',  ( 0.000000000000000000, 0.000000000000000000, 50.00000000000000000 ) ) ;
#163 = ADVANCED_FACE ( 'NONE', ( #69 ), #127, .F. ) ;
#164 = CARTESIAN_POINT ( 'NONE',  ( 0.000000000000000000, 0.000000000000000000, 20.00000000000000000 ) ) ;
#165 = VERTEX_POINT ( 'NONE', #266 ) ;
#166 = CARTESIAN_POINT ( 'NONE',  ( -3.000000000000000000, 3.673940397442059868E-16, 2.000000000000000000 ) ) ;
#167 = PRODUCT ( 'bj720-06001', 'bj720-06001', '', ( #309 ) ) ;
#168 = AXIS2_PLACEMENT_3D ( 'NONE', #121, #205, #279 ) ;
#169 = ORIENTED_EDGE ( 'NONE', *, *, #196, .T. ) ;
#170 = COORDINATED_UNIVERSAL_TIME_OFFSET ( 9, 0, .AHEAD. ) ;
#171 = ORIENTED_EDGE ( 'NONE', *, *, #338, .F. ) ;
#172 = COORDINATED_UNIVERSAL_TIME_OFFSET ( 9, 0, .AHEAD. ) ;
#173 = EDGE_CURVE ( 'NONE', #265, #85, #36, .T. ) ;
#174 = CIRCLE ( 'NONE', #120, 1.500000000000000000 ) ;
#175 = APPROVAL_STATUS ( 'not_yet_approved' ) ;
#176 = AXIS2_PLACEMENT_3D ( 'NONE', #48, #323, #254 ) ;
#177 = ORIENTED_EDGE ( 'NONE', *, *, #8, .F. ) ;
#178 = EDGE_LOOP ( 'NONE', ( #161, #118 ) ) ;
#179 = DATE_AND_TIME ( #62, #233 ) ;
#180 = ORIENTED_EDGE ( 'NONE', *, *, #58, .F. ) ;
#181 = APPROVAL_ROLE ( '' ) ;
#182 = PLANE ( 'NONE',  #199 ) ;
#183 = DIRECTION ( 'NONE',  ( 1.000000000000000000, 0.000000000000000000, 0.000000000000000000 ) ) ;
#184 = EDGE_LOOP ( 'NONE', ( #219, #296, #306, #65 ) ) ;
#185 = AXIS2_PLACEMENT_3D ( 'NONE', #75, #41, #144 ) ;
#186 = ORIENTED_EDGE ( 'NONE', *, *, #15, .T. ) ;
#187 = CARTESIAN_POINT ( 'NONE',  ( 0.000000000000000000, 0.000000000000000000, 0.000000000000000000 ) ) ;
#188 = ORIENTED_EDGE ( 'NONE', *, *, #256, .T. ) ;
#189 = DIRECTION ( 'NONE',  ( 0.000000000000000000, 0.000000000000000000, 1.000000000000000000 ) ) ;
#190 = APPLICATION_CONTEXT ( 'configuration controlled 3d designs of mechanical parts and assemblies' ) ;
#191 = DIRECTION ( 'NONE',  ( 0.000000000000000000, 0.000000000000000000, 1.000000000000000000 ) ) ;
#192 = APPROVAL_PERSON_ORGANIZATION ( #231, #80, #181 ) ;
#193 = LOCAL_TIME ( 8, 59, 6.000000000000000000, #170 ) ;
#194 =( LENGTH_UNIT ( ) NAMED_UNIT ( * ) SI_UNIT ( .MILLI., .METRE. ) );
#195 = FACE_OUTER_BOUND ( 'NONE', #320, .T. ) ;
#196 = EDGE_CURVE ( 'NONE', #250, #42, #304, .T. ) ;
#197 = VERTEX_POINT ( 'NONE', #159 ) ;
#198 = CIRCLE ( 'NONE', #78, 1.845299461620750092 ) ;
#199 = AXIS2_PLACEMENT_3D ( 'NONE', #236, #96, #218 ) ;
#200 = LINE ( 'NONE', #166, #55 ) ;
#201 = ORIENTED_EDGE ( 'NONE', *, *, #88, .T. ) ;
#202 = ORIENTED_EDGE ( 'NONE', *, *, #8, .T. ) ;
#203 = ADVANCED_FACE ( 'NONE', ( #123, #93 ), #216, .F. ) ;
#204 = DESIGN_CONTEXT ( 'detailed design', #190, 'design' ) ;
#205 = DIRECTION ( 'NONE',  ( 0.000000000000000000, 0.000000000000000000, 1.000000000000000000 ) ) ;
#206 = EDGE_LOOP ( 'NONE', ( #270, #169 ) ) ;
#207 = CC_DESIGN_PERSON_AND_ORGANIZATION_ASSIGNMENT ( #143, #150, ( #76 ) ) ;
#208 = EDGE_CURVE ( 'NONE', #329, #197, #294, .T. ) ;
#209 = APPROVAL_DATE_TIME ( #148, #80 ) ;
#210 = UNCERTAINTY_MEASURE_WITH_UNIT (LENGTH_MEASURE( 1.000000000000000082E-05 ), #194, 'distance_accuracy_value', 'NONE');
#211 = DIRECTION ( 'NONE',  ( 1.000000000000000000, 0.000000000000000000, 0.000000000000000000 ) ) ;
#212 = AXIS2_PLACEMENT_3D ( 'NONE', #187, #43, #154 ) ;
#213 = COORDINATED_UNIVERSAL_TIME_OFFSET ( 9, 0, .AHEAD. ) ;
#214 = CIRCLE ( 'NONE', #168, 3.000000000000000000 ) ;
#215 = APPROVAL_DATE_TIME ( #57, #290 ) ;
#216 = PLANE ( 'NONE',  #133 ) ;
#217 = ORIENTED_EDGE ( 'NONE', *, *, #173, .F. ) ;
#218 = DIRECTION ( 'NONE',  ( 1.000000000000000000, 0.000000000000000000, 0.000000000000000000 ) ) ;
#219 = ORIENTED_EDGE ( 'NONE', *, *, #196, .F. ) ;
#220 = DIRECTION ( 'NONE',  ( 0.000000000000000000, 0.000000000000000000, 1.000000000000000000 ) ) ;
#221 = CARTESIAN_POINT ( 'NONE',  ( 1.500000000000000000, 0.000000000000000000, 14.00000000000000000 ) ) ;
#222 = CC_DESIGN_APPROVAL ( #80, ( #52 ) ) ;
#223 = AXIS2_PLACEMENT_3D ( 'NONE', #239, #349, #321 ) ;
#224 = CARTESIAN_POINT ( 'NONE',  ( 0.000000000000000000, 0.000000000000000000, 50.00000000000000000 ) ) ;
#225 = EDGE_CURVE ( 'NONE', #250, #314, #70, .T. ) ;
#226 = ORIENTED_EDGE ( 'NONE', *, *, #242, .F. ) ;
#227 = FACE_OUTER_BOUND ( 'NONE', #206, .T. ) ;
#228 = PERSON_AND_ORGANIZATION ( #51, #91 ) ;
#229 = LOCAL_TIME ( 8, 59, 6.000000000000000000, #172 ) ;
#230 = PERSON_AND_ORGANIZATION_ROLE ( 'creator' ) ;
#231 = PERSON_AND_ORGANIZATION ( #51, #91 ) ;
#232 = FACE_OUTER_BOUND ( 'NONE', #101, .T. ) ;
#233 = LOCAL_TIME ( 8, 59, 6.000000000000000000, #255 ) ;
#234 = CARTESIAN_POINT ( 'NONE',  ( 0.000000000000000000, 0.000000000000000000, 20.00000000000000000 ) ) ;
#235 = CC_DESIGN_PERSON_AND_ORGANIZATION_ASSIGNMENT ( #335, #310, ( #76 ) ) ;
#236 = CARTESIAN_POINT ( 'NONE',  ( 0.000000000000000000, 0.000000000000000000, 14.00000000000000000 ) ) ;
#237 = EDGE_CURVE ( 'NONE', #85, #265, #9, .T. ) ;
#238 = DIRECTION ( 'NONE',  ( -0.5000000000000007772, 0.000000000000000000, -0.8660254037844381525 ) ) ;
#239 = CARTESIAN_POINT ( 'NONE',  ( 0.000000000000000000, 0.000000000000000000, 2.000000000000000000 ) ) ;
#240 = DIRECTION ( 'NONE',  ( 0.000000000000000000, 0.000000000000000000, 1.000000000000000000 ) ) ;
#241 = ORIENTED_EDGE ( 'NONE', *, *, #242, .T. ) ;
#242 = EDGE_CURVE ( 'NONE', #269, #33, #134, .T. ) ;
#243 = CARTESIAN_POINT ( 'NONE',  ( 0.000000000000000000, 0.000000000000000000, 50.00000000000000000 ) ) ;
#244 = DIRECTION ( 'NONE',  ( 0.000000000000000000, 0.000000000000000000, 1.000000000000000000 ) ) ;
#245 = CARTESIAN_POINT ( 'NONE',  ( 0.000000000000000000, 0.000000000000000000, 14.00000000000000000 ) ) ;
#246 = AXIS2_PLACEMENT_3D ( 'NONE', #12, #95, #98 ) ;
#247 = LINE ( 'NONE', #140, #249 ) ;
#248 = ORIENTED_EDGE ( 'NONE', *, *, #45, .T. ) ;
#249 = VECTOR ( 'NONE', #113, 1000.000000000000000 ) ;
#250 = VERTEX_POINT ( 'NONE', #274 ) ;
#251 = VECTOR ( 'NONE', #104, 1000.000000000000114 ) ;
#252 = PERSON_AND_ORGANIZATION ( #51, #91 ) ;
#253 = DIRECTION ( 'NONE',  ( 0.000000000000000000, 0.000000000000000000, 1.000000000000000000 ) ) ;
#254 = DIRECTION ( 'NONE',  ( 1.000000000000000000, 0.000000000000000000, 0.000000000000000000 ) ) ;
#255 = COORDINATED_UNIVERSAL_TIME_OFFSET ( 9, 0, .AHEAD. ) ;
#256 = EDGE_CURVE ( 'NONE', #106, #85, #200, .T. ) ;
#257 = APPROVAL_STATUS ( 'not_yet_approved' ) ;
#258 = LOCAL_TIME ( 8, 59, 6.000000000000000000, #86 ) ;
#259 = CARTESIAN_POINT ( 'NONE',  ( 0.000000000000000000, 0.000000000000000000, 0.000000000000000000 ) ) ;
#260 = CIRCLE ( 'NONE', #185, 1.845299461620750092 ) ;
#261 = APPROVAL ( #257, 'UNSPECIFIED' ) ;
#262 = DIRECTION ( 'NONE',  ( 0.000000000000000000, 0.000000000000000000, 1.000000000000000000 ) ) ;
#263 = ADVANCED_FACE ( 'NONE', ( #195 ), #302, .T. ) ;
#264 = CYLINDRICAL_SURFACE ( 'NONE', #284, 1.500000000000000000 ) ;
#265 = VERTEX_POINT ( 'NONE', #324 ) ;
#266 = CARTESIAN_POINT ( 'NONE',  ( 1.845299461620750092, 0.000000000000000000, 0.000000000000000000 ) ) ;
#267 = DIRECTION ( 'NONE',  ( 0.000000000000000000, 0.000000000000000000, 1.000000000000000000 ) ) ;
#268 = AXIS2_PLACEMENT_3D ( 'NONE', #131, #191, #347 ) ;
#269 = VERTEX_POINT ( 'NONE', #282 ) ;
#270 = ORIENTED_EDGE ( 'NONE', *, *, #66, .T. ) ;
#271 = CARTESIAN_POINT ( 'NONE',  ( -1.845299461620740100, 0.000000000000000000, 20.00000000000000000 ) ) ;
#272 = ORIENTED_EDGE ( 'NONE', *, *, #256, .F. ) ;
#273 = CC_DESIGN_APPROVAL ( #261, ( #76 ) ) ;
#274 = CARTESIAN_POINT ( 'NONE',  ( -1.500000000000000000, 1.836970198721029934E-16, 14.00000000000000000 ) ) ;
#275 = DIRECTION ( 'NONE',  ( 1.000000000000000000, 0.000000000000000000, 0.000000000000000000 ) ) ;
#276 = ORIENTED_EDGE ( 'NONE', *, *, #15, .F. ) ;
#277 = ORIENTED_EDGE ( 'NONE', *, *, #208, .T. ) ;
#278 = AXIS2_PLACEMENT_3D ( 'NONE', #245, #107, #211 ) ;
#279 = DIRECTION ( 'NONE',  ( 1.000000000000000000, 0.000000000000000000, 0.000000000000000000 ) ) ;
#280 = AXIS2_PLACEMENT_3D ( 'NONE', #224, #46, #327 ) ;
#281 = ORIENTED_EDGE ( 'NONE', *, *, #237, .F. ) ;
#282 = CARTESIAN_POINT ( 'NONE',  ( 1.845299461620740100, 2.966890238292115680E-16, 20.00000000000000000 ) ) ;
#283 = SECURITY_CLASSIFICATION_LEVEL ( 'unclassified' ) ;
#284 = AXIS2_PLACEMENT_3D ( 'NONE', #16, #240, #351 ) ;
#285 = PERSON_AND_ORGANIZATION_ROLE ( 'design_owner' ) ;
#286 = FACE_OUTER_BOUND ( 'NONE', #129, .T. ) ;
#287 = APPROVAL_ROLE ( '' ) ;
#288 = DIRECTION ( 'NONE',  ( 0.000000000000000000, 0.000000000000000000, -1.000000000000000000 ) ) ;
#289 = DIRECTION ( 'NONE',  ( 1.000000000000000000, 0.000000000000000000, 0.000000000000000000 ) ) ;
#290 = APPROVAL ( #175, 'UNSPECIFIED' ) ;
#291 = LOCAL_TIME ( 8, 59, 6.000000000000000000, #213 ) ;
#292 = CYLINDRICAL_SURFACE ( 'NONE', #280, 1.500000000000000000 ) ;
#293 = CIRCLE ( 'NONE', #5, 1.845299461620740100 ) ;
#294 = LINE ( 'NONE', #19, #14 ) ;
#295 = ORIENTED_EDGE ( 'NONE', *, *, #58, .T. ) ;
#296 = ORIENTED_EDGE ( 'NONE', *, *, #225, .T. ) ;
#297 = CYLINDRICAL_SURFACE ( 'NONE', #330, 3.000000000000000000 ) ;
#298 = CARTESIAN_POINT ( 'NONE',  ( -1.500000000000000000, 1.836970198721029934E-16, 50.00000000000000000 ) ) ;
#299 = FACE_OUTER_BOUND ( 'NONE', #137, .T. ) ;
#300 = DIRECTION ( 'NONE',  ( 1.000000000000000000, 0.000000000000000000, 0.000000000000000000 ) ) ;
#301 = LINE ( 'NONE', #355, #74 ) ;
#302 = CYLINDRICAL_SURFACE ( 'NONE', #333, 3.000000000000000000 ) ;
#303 = CC_DESIGN_PERSON_AND_ORGANIZATION_ASSIGNMENT ( #228, #230, ( #54 ) ) ;
#304 = CIRCLE ( 'NONE', #110, 1.500000000000000000 ) ;
#305 = MANIFOLD_SOLID_BREP ( 'Imported1', #345 ) ;
#306 = ORIENTED_EDGE ( 'NONE', *, *, #155, .T. ) ;
#307 = APPROVAL_STATUS ( 'not_yet_approved' ) ;
#308 = ORIENTED_EDGE ( 'NONE', *, *, #66, .F. ) ;
#309 = MECHANICAL_CONTEXT ( 'NONE', #28, 'mechanical' ) ;
#310 = PERSON_AND_ORGANIZATION_ROLE ( 'design_supplier' ) ;
#311 = DIRECTION ( 'NONE',  ( 0.000000000000000000, 0.000000000000000000, 1.000000000000000000 ) ) ;
#312 = APPROVAL_PERSON_ORGANIZATION ( #112, #290, #287 ) ;
#313 = APPLICATION_PROTOCOL_DEFINITION ( 'international standard', 'config_control_design', 1994, #28 ) ;
#314 = VERTEX_POINT ( 'NONE', #92 ) ;
#315 = DIRECTION ( 'NONE',  ( -1.000000000000000000, 0.000000000000000000, 0.000000000000000000 ) ) ;
#316 = DIRECTION ( 'NONE',  ( 0.000000000000000000, 0.000000000000000000, 1.000000000000000000 ) ) ;
#317 = VECTOR ( 'NONE', #319, 1000.000000000000000 ) ;
#318 = DIRECTION ( 'NONE',  ( -1.000000000000000000, 0.000000000000000000, 0.000000000000000000 ) ) ;
#319 = DIRECTION ( 'NONE',  ( 0.000000000000000000, 0.000000000000000000, 1.000000000000000000 ) ) ;
#320 = EDGE_LOOP ( 'NONE', ( #177, #114, #35, #124 ) ) ;
#321 = DIRECTION ( 'NONE',  ( 1.000000000000000000, 0.000000000000000000, 0.000000000000000000 ) ) ;
#322 = VERTEX_POINT ( 'NONE', #82 ) ;
#323 = DIRECTION ( 'NONE',  ( 0.000000000000000000, 0.000000000000000000, 1.000000000000000000 ) ) ;
#324 = CARTESIAN_POINT ( 'NONE',  ( 3.000000000000000000, 0.000000000000000000, 2.000000000000000000 ) ) ;
#325 = EDGE_LOOP ( 'NONE', ( #136, #202, #63, #171 ) ) ;
#326 = AXIS2_PLACEMENT_3D ( 'NONE', #25, #267, #23 ) ;
#327 = DIRECTION ( 'NONE',  ( 1.000000000000000000, 0.000000000000000000, 0.000000000000000000 ) ) ;
#328 = CC_DESIGN_DATE_AND_TIME_ASSIGNMENT ( #179, #332, ( #54 ) ) ;
#329 = VERTEX_POINT ( 'NONE', #271 ) ;
#330 = AXIS2_PLACEMENT_3D ( 'NONE', #243, #24, #44 ) ;
#331 = ORIENTED_EDGE ( 'NONE', *, *, #341, .F. ) ;
#332 = DATE_TIME_ROLE ( 'creation_date' ) ;
#333 = AXIS2_PLACEMENT_3D ( 'NONE', #162, #311, #39 ) ;
#334 = APPROVAL_DATE_TIME ( #10, #261 ) ;
#335 = PERSON_AND_ORGANIZATION ( #51, #91 ) ;
#336 = ORIENTED_EDGE ( 'NONE', *, *, #108, .T. ) ;
#337 = APPLICATION_PROTOCOL_DEFINITION ( 'international standard', 'config_control_design', 1994, #190 ) ;
#338 = EDGE_CURVE ( 'NONE', #265, #33, #354, .T. ) ;
#339 =( GEOMETRIC_REPRESENTATION_CONTEXT ( 3 ) GLOBAL_UNCERTAINTY_ASSIGNED_CONTEXT ( ( #210 ) ) GLOBAL_UNIT_ASSIGNED_CONTEXT ( ( #194, #3, #1 ) ) REPRESENTATION_CONTEXT ( 'NONE', 'WORKASPACE' ) );
#340 = DIRECTION ( 'NONE',  ( 1.000000000000000000, 0.000000000000000000, 0.000000000000000000 ) ) ;
#341 = EDGE_CURVE ( 'NONE', #106, #165, #260, .T. ) ;
#342 = CC_DESIGN_PERSON_AND_ORGANIZATION_ASSIGNMENT ( #115, #89, ( #52 ) ) ;
#343 = ADVANCED_FACE ( 'NONE', ( #232 ), #145, .T. ) ;
#344 = ADVANCED_BREP_SHAPE_REPRESENTATION ( 'bj720-06001', ( #305, #61 ), #339 ) ;
#345 = CLOSED_SHELL ( 'NONE', ( #56, #32, #30, #94, #163, #343, #263, #90, #203, #105, #117 ) ) ;
#346 = ORIENTED_EDGE ( 'NONE', *, *, #225, .F. ) ;
#347 = DIRECTION ( 'NONE',  ( 1.000000000000000000, 0.000000000000000000, 0.000000000000000000 ) ) ;
#348 = AXIS2_PLACEMENT_3D ( 'NONE', #156, #316, #183 ) ;
#349 = DIRECTION ( 'NONE',  ( 0.000000000000000000, 0.000000000000000000, 1.000000000000000000 ) ) ;
#350 = FACE_OUTER_BOUND ( 'NONE', #184, .T. ) ;
#351 = DIRECTION ( 'NONE',  ( 1.000000000000000000, 0.000000000000000000, 0.000000000000000000 ) ) ;
#352 = LINE ( 'NONE', #152, #130 ) ;
#353 = CARTESIAN_POINT ( 'NONE',  ( 3.000000000000000000, 3.673940397442059868E-16, 18.00000000000000000 ) ) ;
#354 = LINE ( 'NONE', #47, #317 ) ;
#355 = CARTESIAN_POINT ( 'NONE',  ( 3.000000000000000000, 0.000000000000000000, 2.000000000000000000 ) ) ;
ENDSEC;
END-ISO-10303-21;
