ISO-10303-21;
HEADER;
FILE_DESCRIPTION (( 'STEP AP203' ),
    '1' );
FILE_NAME ('bj300-16040.STEP',
    '2021-10-24T23:51:36',
    ( '' ),
    ( '' ),
    'SwSTEP 2.0',
    'SolidWorks 2020',
    '' );
FILE_SCHEMA (( 'CONFIG_CONTROL_DESIGN' ));
ENDSEC;

DATA;
#1 = DIRECTION ( 'NONE',  ( 0.000000000000000000, 0.000000000000000000, 1.000000000000000000 ) ) ;
#2 = CARTESIAN_POINT ( 'NONE',  ( -9.000000000000000000, 1.102182119232617714E-15, 40.00000000000000000 ) ) ;
#3 = DIRECTION ( 'NONE',  ( 1.000000000000000000, 0.000000000000000000, 0.000000000000000000 ) ) ;
#4 = PLANE ( 'NONE',  #127 ) ;
#5 = PERSON_AND_ORGANIZATION_ROLE ( 'creator' ) ;
#6 = DIRECTION ( 'NONE',  ( 1.000000000000000000, 0.000000000000000000, 0.000000000000000000 ) ) ;
#7 = CALENDAR_DATE ( 2021, 25, 10 ) ;
#8 = DIRECTION ( 'NONE',  ( 0.000000000000000000, 0.000000000000000000, 1.000000000000000000 ) ) ;
#9 = DIRECTION ( 'NONE',  ( 0.000000000000000000, 0.000000000000000000, 1.000000000000000000 ) ) ;
#10 = APPROVAL_STATUS ( 'not_yet_approved' ) ;
#11 = DIRECTION ( 'NONE',  ( 0.000000000000000000, 0.000000000000000000, 1.000000000000000000 ) ) ;
#12 = VECTOR ( 'NONE', #8, 1000.000000000000000 ) ;
#13 = CC_DESIGN_APPROVAL ( #301, ( #279 ) ) ;
#14 = ORIENTED_EDGE ( 'NONE', *, *, #224, .T. ) ;
#15 = AXIS2_PLACEMENT_3D ( 'NONE', #187, #52, #258 ) ;
#16 = EDGE_LOOP ( 'NONE', ( #245, #194 ) ) ;
#17 = CC_DESIGN_APPROVAL ( #146, ( #108 ) ) ;
#18 = LOCAL_TIME ( 8, 51, 35.00000000000000000, #235 ) ;
#19 = ORIENTED_EDGE ( 'NONE', *, *, #222, .F. ) ;
#20 = CARTESIAN_POINT ( 'NONE',  ( 0.000000000000000000, 0.000000000000000000, 40.00000000000000000 ) ) ;
#21 = ADVANCED_BREP_SHAPE_REPRESENTATION ( 'bj300-16040', ( #264, #172 ), #317 ) ;
#22 = CC_DESIGN_PERSON_AND_ORGANIZATION_ASSIGNMENT ( #307, #86, ( #246 ) ) ;
#23 = DIRECTION ( 'NONE',  ( 0.000000000000000000, 0.000000000000000000, 1.000000000000000000 ) ) ;
#24 = DIRECTION ( 'NONE',  ( 1.000000000000000000, 0.000000000000000000, 0.000000000000000000 ) ) ;
#25 = DIRECTION ( 'NONE',  ( 0.000000000000000000, 0.000000000000000000, 1.000000000000000000 ) ) ;
#26 = ORGANIZATION ( 'UNSPECIFIED', 'UNSPECIFIED', '' ) ;
#27 = CARTESIAN_POINT ( 'NONE',  ( 25.00000000000000000, 0.000000000000000000, 40.00000000000000000 ) ) ;
#28 = LINE ( 'NONE', #27, #212 ) ;
#29 = AXIS2_PLACEMENT_3D ( 'NONE', #266, #11, #311 ) ;
#30 = DIRECTION ( 'NONE',  ( 0.000000000000000000, 0.000000000000000000, 1.000000000000000000 ) ) ;
#31 = DIRECTION ( 'NONE',  ( 0.000000000000000000, 0.000000000000000000, 1.000000000000000000 ) ) ;
#32 = PERSON_AND_ORGANIZATION_ROLE ( 'classification_officer' ) ;
#33 = DIRECTION ( 'NONE',  ( 1.000000000000000000, 0.000000000000000000, 0.000000000000000000 ) ) ;
#34 = CARTESIAN_POINT ( 'NONE',  ( 0.000000000000000000, 0.000000000000000000, 40.00000000000000000 ) ) ;
#35 = ADVANCED_FACE ( 'NONE', ( #291 ), #137, .F. ) ;
#36 = PERSON_AND_ORGANIZATION ( #198, #26 ) ;
#37 = EDGE_CURVE ( 'NONE', #100, #296, #83, .T. ) ;
#38 = APPLICATION_PROTOCOL_DEFINITION ( 'international standard', 'config_control_design', 1994, #292 ) ;
#39 = DIRECTION ( 'NONE',  ( 0.000000000000000000, 0.000000000000000000, 1.000000000000000000 ) ) ;
#40 = APPROVAL_ROLE ( '' ) ;
#41 = CIRCLE ( 'NONE', #227, 25.00000000000000000 ) ;
#42 = VERTEX_POINT ( 'NONE', #285 ) ;
#43 = EDGE_LOOP ( 'NONE', ( #197, #295, #123, #82 ) ) ;
#44 = ADVANCED_FACE ( 'NONE', ( #87, #236 ), #4, .F. ) ;
#45 = AXIS2_PLACEMENT_3D ( 'NONE', #177, #39, #148 ) ;
#46 = ORIENTED_EDGE ( 'NONE', *, *, #64, .T. ) ;
#47 = DIRECTION ( 'NONE',  ( 0.000000000000000000, 0.000000000000000000, 1.000000000000000000 ) ) ;
#48 = EDGE_LOOP ( 'NONE', ( #214, #46 ) ) ;
#49 = CLOSED_SHELL ( 'NONE', ( #35, #274, #213, #96, #256, #247, #167, #44, #303 ) ) ;
#50 = AXIS2_PLACEMENT_3D ( 'NONE', #79, #25, #75 ) ;
#51 = APPROVAL_ROLE ( '' ) ;
#52 = DIRECTION ( 'NONE',  ( 0.000000000000000000, 0.000000000000000000, -1.000000000000000000 ) ) ;
#53 = CARTESIAN_POINT ( 'NONE',  ( 0.000000000000000000, 0.000000000000000000, 40.00000000000000000 ) ) ;
#54 = CIRCLE ( 'NONE', #122, 9.000000000000000000 ) ;
#55 = APPROVAL_ROLE ( '' ) ;
#56 = CARTESIAN_POINT ( 'NONE',  ( 0.000000000000000000, 0.000000000000000000, 0.000000000000000000 ) ) ;
#57 = PERSON_AND_ORGANIZATION ( #198, #26 ) ;
#58 = DATE_AND_TIME ( #166, #329 ) ;
#59 = CYLINDRICAL_SURFACE ( 'NONE', #45, 25.00000000000000000 ) ;
#60 = DIRECTION ( 'NONE',  ( 0.000000000000000000, 0.000000000000000000, 1.000000000000000000 ) ) ;
#61 = CARTESIAN_POINT ( 'NONE',  ( -13.00000000000000000, 1.592040838891559095E-15, 40.00000000000000000 ) ) ;
#62 = DIRECTION ( 'NONE',  ( 0.000000000000000000, 0.000000000000000000, 1.000000000000000000 ) ) ;
#63 = EDGE_CURVE ( 'NONE', #42, #116, #94, .T. ) ;
#64 = EDGE_CURVE ( 'NONE', #173, #280, #309, .T. ) ;
#65 = COORDINATED_UNIVERSAL_TIME_OFFSET ( 9, 0, .AHEAD. ) ;
#66 = DIRECTION ( 'NONE',  ( 1.000000000000000000, 0.000000000000000000, 0.000000000000000000 ) ) ;
#67 = CARTESIAN_POINT ( 'NONE',  ( 0.000000000000000000, 0.000000000000000000, 0.000000000000000000 ) ) ;
#68 = CALENDAR_DATE ( 2021, 25, 10 ) ;
#69 = EDGE_CURVE ( 'NONE', #249, #141, #281, .T. ) ;
#70 = CARTESIAN_POINT ( 'NONE',  ( 0.000000000000000000, 0.000000000000000000, 0.000000000000000000 ) ) ;
#71 = AXIS2_PLACEMENT_3D ( 'NONE', #207, #184, #181 ) ;
#72 = VERTEX_POINT ( 'NONE', #290 ) ;
#73 = CC_DESIGN_SECURITY_CLASSIFICATION ( #279, ( #246 ) ) ;
#74 = FACE_OUTER_BOUND ( 'NONE', #125, .T. ) ;
#75 = DIRECTION ( 'NONE',  ( 1.000000000000000000, 0.000000000000000000, 0.000000000000000000 ) ) ;
#76 = UNCERTAINTY_MEASURE_WITH_UNIT (LENGTH_MEASURE( 1.000000000000000082E-05 ), #218, 'distance_accuracy_value', 'NONE');
#77 = DIRECTION ( 'NONE',  ( 1.000000000000000000, 0.000000000000000000, 0.000000000000000000 ) ) ;
#78 = AXIS2_PLACEMENT_3D ( 'NONE', #124, #47, #176 ) ;
#79 = CARTESIAN_POINT ( 'NONE',  ( 9.000000000000000000, 0.000000000000000000, 0.000000000000000000 ) ) ;
#80 = PLANE ( 'NONE',  #15 ) ;
#81 = CC_DESIGN_PERSON_AND_ORGANIZATION_ASSIGNMENT ( #36, #262, ( #246 ) ) ;
#82 = ORIENTED_EDGE ( 'NONE', *, *, #277, .F. ) ;
#83 = CIRCLE ( 'NONE', #106, 13.00000000000000000 ) ;
#84 = DIRECTION ( 'NONE',  ( 1.000000000000000000, 0.000000000000000000, 0.000000000000000000 ) ) ;
#85 = CIRCLE ( 'NONE', #322, 13.00000000000000000 ) ;
#86 = PERSON_AND_ORGANIZATION_ROLE ( 'design_supplier' ) ;
#87 = FACE_BOUND ( 'NONE', #121, .T. ) ;
#88 = LINE ( 'NONE', #269, #130 ) ;
#89 = COORDINATED_UNIVERSAL_TIME_OFFSET ( 9, 0, .AHEAD. ) ;
#90 = FACE_OUTER_BOUND ( 'NONE', #48, .T. ) ;
#91 = CC_DESIGN_PERSON_AND_ORGANIZATION_ASSIGNMENT ( #289, #5, ( #108 ) ) ;
#92 =( NAMED_UNIT ( * ) SI_UNIT ( $, .STERADIAN. ) SOLID_ANGLE_UNIT ( ) );
#93 = AXIS2_PLACEMENT_3D ( 'NONE', #282, #205, #230 ) ;
#94 = CIRCLE ( 'NONE', #278, 9.000000000000000000 ) ;
#95 = ORIENTED_EDGE ( 'NONE', *, *, #248, .F. ) ;
#96 = ADVANCED_FACE ( 'NONE', ( #210, #90 ), #80, .F. ) ;
#97 = AXIS2_PLACEMENT_3D ( 'NONE', #154, #131, #255 ) ;
#98 = ORIENTED_EDGE ( 'NONE', *, *, #107, .F. ) ;
#99 = EDGE_CURVE ( 'NONE', #173, #100, #228, .T. ) ;
#100 = VERTEX_POINT ( 'NONE', #135 ) ;
#101 = LOCAL_TIME ( 8, 51, 35.00000000000000000, #89 ) ;
#102 = ORIENTED_EDGE ( 'NONE', *, *, #202, .F. ) ;
#103 = FACE_OUTER_BOUND ( 'NONE', #175, .T. ) ;
#104 = PRODUCT_RELATED_PRODUCT_CATEGORY ( 'detail', '', ( #152 ) ) ;
#105 = DIRECTION ( 'NONE',  ( 0.000000000000000000, 0.000000000000000000, 1.000000000000000000 ) ) ;
#106 = AXIS2_PLACEMENT_3D ( 'NONE', #265, #30, #24 ) ;
#107 = EDGE_CURVE ( 'NONE', #296, #100, #298, .T. ) ;
#108 = PRODUCT_DEFINITION ( 'UNKNOWN', '', #246, #149 ) ;
#109 = FACE_BOUND ( 'NONE', #126, .T. ) ;
#110 = CC_DESIGN_PERSON_AND_ORGANIZATION_ASSIGNMENT ( #57, #261, ( #152 ) ) ;
#111 = CARTESIAN_POINT ( 'NONE',  ( 9.000000000000000000, 0.000000000000000000, 0.000000000000000000 ) ) ;
#112 = DIRECTION ( 'NONE',  ( 0.000000000000000000, 0.000000000000000000, 1.000000000000000000 ) ) ;
#113 = CARTESIAN_POINT ( 'NONE',  ( 13.00000000000000000, 0.000000000000000000, 40.00000000000000000 ) ) ;
#114 = EDGE_CURVE ( 'NONE', #42, #324, #232, .T. ) ;
#115 = APPROVAL_STATUS ( 'not_yet_approved' ) ;
#116 = VERTEX_POINT ( 'NONE', #111 ) ;
#117 = CARTESIAN_POINT ( 'NONE',  ( 9.000000000000000000, 0.000000000000000000, 15.00000000000000000 ) ) ;
#118 = PERSON_AND_ORGANIZATION ( #198, #26 ) ;
#119 = VECTOR ( 'NONE', #31, 1000.000000000000000 ) ;
#120 = VERTEX_POINT ( 'NONE', #310 ) ;
#121 = EDGE_LOOP ( 'NONE', ( #98, #225 ) ) ;
#122 = AXIS2_PLACEMENT_3D ( 'NONE', #153, #105, #77 ) ;
#123 = ORIENTED_EDGE ( 'NONE', *, *, #37, .T. ) ;
#124 = CARTESIAN_POINT ( 'NONE',  ( 0.000000000000000000, 0.000000000000000000, 15.00000000000000000 ) ) ;
#125 = EDGE_LOOP ( 'NONE', ( #19, #300, #139, #263 ) ) ;
#126 = EDGE_LOOP ( 'NONE', ( #201, #174 ) ) ;
#127 = AXIS2_PLACEMENT_3D ( 'NONE', #288, #216, #313 ) ;
#128 = CARTESIAN_POINT ( 'NONE',  ( 0.000000000000000000, 0.000000000000000000, 0.000000000000000000 ) ) ;
#129 = LINE ( 'NONE', #327, #196 ) ;
#130 = VECTOR ( 'NONE', #60, 1000.000000000000000 ) ;
#131 = DIRECTION ( 'NONE',  ( 0.000000000000000000, 0.000000000000000000, 1.000000000000000000 ) ) ;
#132 = CYLINDRICAL_SURFACE ( 'NONE', #93, 9.000000000000000000 ) ;
#133 = CARTESIAN_POINT ( 'NONE',  ( 0.000000000000000000, 0.000000000000000000, 15.00000000000000000 ) ) ;
#134 = AXIS2_PLACEMENT_3D ( 'NONE', #241, #233, #66 ) ;
#135 = CARTESIAN_POINT ( 'NONE',  ( -13.00000000000000000, 1.592040838891559095E-15, 40.00000000000000000 ) ) ;
#136 = DIRECTION ( 'NONE',  ( 0.000000000000000000, 0.000000000000000000, 1.000000000000000000 ) ) ;
#137 = CYLINDRICAL_SURFACE ( 'NONE', #234, 13.00000000000000000 ) ;
#138 = PERSON_AND_ORGANIZATION ( #198, #26 ) ;
#139 = ORIENTED_EDGE ( 'NONE', *, *, #248, .T. ) ;
#140 = AXIS2_PLACEMENT_3D ( 'NONE', #53, #136, #3 ) ;
#141 = VERTEX_POINT ( 'NONE', #308 ) ;
#142 = CARTESIAN_POINT ( 'NONE',  ( 13.00000000000000000, 0.000000000000000000, 40.00000000000000000 ) ) ;
#143 = FACE_OUTER_BOUND ( 'NONE', #271, .T. ) ;
#144 = COORDINATED_UNIVERSAL_TIME_OFFSET ( 9, 0, .AHEAD. ) ;
#145 = ORIENTED_EDGE ( 'NONE', *, *, #168, .T. ) ;
#146 = APPROVAL ( #294, 'UNSPECIFIED' ) ;
#147 = APPROVAL_PERSON_ORGANIZATION ( #219, #195, #55 ) ;
#148 = DIRECTION ( 'NONE',  ( 1.000000000000000000, 0.000000000000000000, 0.000000000000000000 ) ) ;
#149 = DESIGN_CONTEXT ( 'detailed design', #272, 'design' ) ;
#150 = DIRECTION ( 'NONE',  ( 0.000000000000000000, 0.000000000000000000, 1.000000000000000000 ) ) ;
#151 = CARTESIAN_POINT ( 'NONE',  ( -25.00000000000000000, 3.061616997868383043E-15, 0.000000000000000000 ) ) ;
#152 = PRODUCT ( 'bj300-16040', 'bj300-16040', '', ( #160 ) ) ;
#153 = CARTESIAN_POINT ( 'NONE',  ( 0.000000000000000000, 0.000000000000000000, 15.00000000000000000 ) ) ;
#154 = CARTESIAN_POINT ( 'NONE',  ( 0.000000000000000000, 0.000000000000000000, 40.00000000000000000 ) ) ;
#155 = AXIS2_PLACEMENT_3D ( 'NONE', #34, #231, #183 ) ;
#156 = ORIENTED_EDGE ( 'NONE', *, *, #99, .F. ) ;
#157 = APPROVAL_PERSON_ORGANIZATION ( #138, #301, #51 ) ;
#158 = CALENDAR_DATE ( 2021, 25, 10 ) ;
#159 = CARTESIAN_POINT ( 'NONE',  ( 0.000000000000000000, 0.000000000000000000, 40.00000000000000000 ) ) ;
#160 = MECHANICAL_CONTEXT ( 'NONE', #292, 'mechanical' ) ;
#161 = PERSON_AND_ORGANIZATION ( #198, #26 ) ;
#162 = VERTEX_POINT ( 'NONE', #117 ) ;
#163 = CARTESIAN_POINT ( 'NONE',  ( 13.00000000000000000, 0.000000000000000000, 15.00000000000000000 ) ) ;
#164 = APPROVAL_DATE_TIME ( #257, #301 ) ;
#165 = ORIENTED_EDGE ( 'NONE', *, *, #114, .T. ) ;
#166 = CALENDAR_DATE ( 2021, 25, 10 ) ;
#167 = ADVANCED_FACE ( 'NONE', ( #74 ), #59, .T. ) ;
#168 = EDGE_CURVE ( 'NONE', #324, #162, #267, .T. ) ;
#169 = CYLINDRICAL_SURFACE ( 'NONE', #29, 13.00000000000000000 ) ;
#170 = DATE_AND_TIME ( #68, #253 ) ;
#171 = ORIENTED_EDGE ( 'NONE', *, *, #69, .F. ) ;
#172 = AXIS2_PLACEMENT_3D ( 'NONE', #319, #62, #190 ) ;
#173 = VERTEX_POINT ( 'NONE', #276 ) ;
#174 = ORIENTED_EDGE ( 'NONE', *, *, #63, .T. ) ;
#175 = EDGE_LOOP ( 'NONE', ( #320, #321, #226, #14 ) ) ;
#176 = DIRECTION ( 'NONE',  ( 1.000000000000000000, 0.000000000000000000, 0.000000000000000000 ) ) ;
#177 = CARTESIAN_POINT ( 'NONE',  ( 0.000000000000000000, 0.000000000000000000, 40.00000000000000000 ) ) ;
#178 = PLANE ( 'NONE',  #50 ) ;
#179 = AXIS2_PLACEMENT_3D ( 'NONE', #56, #112, #238 ) ;
#180 = AXIS2_PLACEMENT_3D ( 'NONE', #67, #9, #215 ) ;
#181 = DIRECTION ( 'NONE',  ( 1.000000000000000000, 0.000000000000000000, 0.000000000000000000 ) ) ;
#182 = DIRECTION ( 'NONE',  ( 0.000000000000000000, 0.000000000000000000, 1.000000000000000000 ) ) ;
#183 = DIRECTION ( 'NONE',  ( 1.000000000000000000, 0.000000000000000000, 0.000000000000000000 ) ) ;
#184 = DIRECTION ( 'NONE',  ( 0.000000000000000000, 0.000000000000000000, 1.000000000000000000 ) ) ;
#185 =( NAMED_UNIT ( * ) PLANE_ANGLE_UNIT ( ) SI_UNIT ( $, .RADIAN. ) );
#186 = DATE_AND_TIME ( #240, #101 ) ;
#187 = CARTESIAN_POINT ( 'NONE',  ( 13.00000000000000000, 0.000000000000000000, 15.00000000000000000 ) ) ;
#188 = EDGE_CURVE ( 'NONE', #141, #249, #41, .T. ) ;
#189 = CC_DESIGN_APPROVAL ( #195, ( #246 ) ) ;
#190 = DIRECTION ( 'NONE',  ( 1.000000000000000000, 0.000000000000000000, 0.000000000000000000 ) ) ;
#191 = ORIENTED_EDGE ( 'NONE', *, *, #107, .T. ) ;
#192 = AXIS2_PLACEMENT_3D ( 'NONE', #20, #23, #209 ) ;
#193 = ORIENTED_EDGE ( 'NONE', *, *, #222, .T. ) ;
#194 = ORIENTED_EDGE ( 'NONE', *, *, #284, .T. ) ;
#195 = APPROVAL ( #115, 'UNSPECIFIED' ) ;
#196 = VECTOR ( 'NONE', #182, 1000.000000000000000 ) ;
#197 = ORIENTED_EDGE ( 'NONE', *, *, #64, .F. ) ;
#198 = PERSON ( 'UNSPECIFIED', 'UNSPECIFIED', 'UNSPECIFIED', ('UNSPECIFIED'), ('UNSPECIFIED'), ('UNSPECIFIED') ) ;
#199 = PRODUCT_DEFINITION_SHAPE ( 'NONE', 'NONE',  #108 ) ;
#200 = CC_DESIGN_DATE_AND_TIME_ASSIGNMENT ( #186, #316, ( #279 ) ) ;
#201 = ORIENTED_EDGE ( 'NONE', *, *, #304, .T. ) ;
#202 = EDGE_CURVE ( 'NONE', #120, #72, #242, .T. ) ;
#203 = FACE_OUTER_BOUND ( 'NONE', #275, .T. ) ;
#204 = LOCAL_TIME ( 8, 51, 35.00000000000000000, #206 ) ;
#205 = DIRECTION ( 'NONE',  ( 0.000000000000000000, 0.000000000000000000, 1.000000000000000000 ) ) ;
#206 = COORDINATED_UNIVERSAL_TIME_OFFSET ( 9, 0, .AHEAD. ) ;
#207 = CARTESIAN_POINT ( 'NONE',  ( 0.000000000000000000, 0.000000000000000000, 15.00000000000000000 ) ) ;
#208 = LINE ( 'NONE', #142, #302 ) ;
#209 = DIRECTION ( 'NONE',  ( 1.000000000000000000, 0.000000000000000000, 0.000000000000000000 ) ) ;
#210 = FACE_BOUND ( 'NONE', #297, .T. ) ;
#211 = CARTESIAN_POINT ( 'NONE',  ( -9.000000000000000000, 1.102182119232617714E-15, 15.00000000000000000 ) ) ;
#212 = VECTOR ( 'NONE', #1, 1000.000000000000000 ) ;
#213 = ADVANCED_FACE ( 'NONE', ( #203 ), #283, .F. ) ;
#214 = ORIENTED_EDGE ( 'NONE', *, *, #217, .T. ) ;
#215 = DIRECTION ( 'NONE',  ( 1.000000000000000000, 0.000000000000000000, 0.000000000000000000 ) ) ;
#216 = DIRECTION ( 'NONE',  ( 0.000000000000000000, 0.000000000000000000, -1.000000000000000000 ) ) ;
#217 = EDGE_CURVE ( 'NONE', #280, #173, #85, .T. ) ;
#218 =( LENGTH_UNIT ( ) NAMED_UNIT ( * ) SI_UNIT ( .MILLI., .METRE. ) );
#219 = PERSON_AND_ORGANIZATION ( #198, #26 ) ;
#220 = ORIENTED_EDGE ( 'NONE', *, *, #277, .T. ) ;
#221 = APPROVAL_PERSON_ORGANIZATION ( #118, #146, #40 ) ;
#222 = EDGE_CURVE ( 'NONE', #249, #72, #129, .T. ) ;
#223 = ORIENTED_EDGE ( 'NONE', *, *, #188, .T. ) ;
#224 = EDGE_CURVE ( 'NONE', #162, #324, #54, .T. ) ;
#225 = ORIENTED_EDGE ( 'NONE', *, *, #37, .F. ) ;
#226 = ORIENTED_EDGE ( 'NONE', *, *, #328, .T. ) ;
#227 = AXIS2_PLACEMENT_3D ( 'NONE', #70, #250, #251 ) ;
#228 = LINE ( 'NONE', #61, #119 ) ;
#229 = DIRECTION ( 'NONE',  ( 0.000000000000000000, 0.000000000000000000, 1.000000000000000000 ) ) ;
#230 = DIRECTION ( 'NONE',  ( 1.000000000000000000, 0.000000000000000000, 0.000000000000000000 ) ) ;
#231 = DIRECTION ( 'NONE',  ( 0.000000000000000000, 0.000000000000000000, 1.000000000000000000 ) ) ;
#232 = LINE ( 'NONE', #2, #12 ) ;
#233 = DIRECTION ( 'NONE',  ( 0.000000000000000000, 0.000000000000000000, 1.000000000000000000 ) ) ;
#234 = AXIS2_PLACEMENT_3D ( 'NONE', #159, #150, #6 ) ;
#235 = COORDINATED_UNIVERSAL_TIME_OFFSET ( 9, 0, .AHEAD. ) ;
#236 = FACE_OUTER_BOUND ( 'NONE', #16, .T. ) ;
#237 = CIRCLE ( 'NONE', #134, 25.00000000000000000 ) ;
#238 = DIRECTION ( 'NONE',  ( 1.000000000000000000, 0.000000000000000000, 0.000000000000000000 ) ) ;
#239 = APPLICATION_PROTOCOL_DEFINITION ( 'international standard', 'config_control_design', 1994, #272 ) ;
#240 = CALENDAR_DATE ( 2021, 25, 10 ) ;
#241 = CARTESIAN_POINT ( 'NONE',  ( 0.000000000000000000, 0.000000000000000000, 40.00000000000000000 ) ) ;
#242 = CIRCLE ( 'NONE', #192, 25.00000000000000000 ) ;
#243 = ORIENTED_EDGE ( 'NONE', *, *, #168, .F. ) ;
#244 = ORIENTED_EDGE ( 'NONE', *, *, #217, .F. ) ;
#245 = ORIENTED_EDGE ( 'NONE', *, *, #202, .T. ) ;
#246 = PRODUCT_DEFINITION_FORMATION_WITH_SPECIFIED_SOURCE ( 'ANY', '', #152, .NOT_KNOWN. ) ;
#247 = ADVANCED_FACE ( 'NONE', ( #254, #109 ), #178, .F. ) ;
#248 = EDGE_CURVE ( 'NONE', #141, #120, #28, .T. ) ;
#249 = VERTEX_POINT ( 'NONE', #151 ) ;
#250 = DIRECTION ( 'NONE',  ( 0.000000000000000000, 0.000000000000000000, 1.000000000000000000 ) ) ;
#251 = DIRECTION ( 'NONE',  ( 1.000000000000000000, 0.000000000000000000, 0.000000000000000000 ) ) ;
#252 = EDGE_LOOP ( 'NONE', ( #223, #193, #102, #95 ) ) ;
#253 = LOCAL_TIME ( 8, 51, 35.00000000000000000, #144 ) ;
#254 = FACE_OUTER_BOUND ( 'NONE', #299, .T. ) ;
#255 = DIRECTION ( 'NONE',  ( 1.000000000000000000, 0.000000000000000000, 0.000000000000000000 ) ) ;
#256 = ADVANCED_FACE ( 'NONE', ( #103 ), #132, .F. ) ;
#257 = DATE_AND_TIME ( #158, #18 ) ;
#258 = DIRECTION ( 'NONE',  ( -1.000000000000000000, 0.000000000000000000, 0.000000000000000000 ) ) ;
#259 = SHAPE_DEFINITION_REPRESENTATION ( #199, #21 ) ;
#260 = ORIENTED_EDGE ( 'NONE', *, *, #224, .F. ) ;
#261 = PERSON_AND_ORGANIZATION_ROLE ( 'design_owner' ) ;
#262 = PERSON_AND_ORGANIZATION_ROLE ( 'creator' ) ;
#263 = ORIENTED_EDGE ( 'NONE', *, *, #284, .F. ) ;
#264 = MANIFOLD_SOLID_BREP ( 'Imported1', #49 ) ;
#265 = CARTESIAN_POINT ( 'NONE',  ( 0.000000000000000000, 0.000000000000000000, 40.00000000000000000 ) ) ;
#266 = CARTESIAN_POINT ( 'NONE',  ( 0.000000000000000000, 0.000000000000000000, 40.00000000000000000 ) ) ;
#267 = CIRCLE ( 'NONE', #78, 9.000000000000000000 ) ;
#268 = APPROVAL_DATE_TIME ( #58, #195 ) ;
#269 = CARTESIAN_POINT ( 'NONE',  ( 9.000000000000000000, 0.000000000000000000, 40.00000000000000000 ) ) ;
#270 = APPROVAL_DATE_TIME ( #170, #146 ) ;
#271 = EDGE_LOOP ( 'NONE', ( #156, #244, #220, #191 ) ) ;
#272 = APPLICATION_CONTEXT ( 'configuration controlled 3d designs of mechanical parts and assemblies' ) ;
#273 = CIRCLE ( 'NONE', #180, 9.000000000000000000 ) ;
#274 = ADVANCED_FACE ( 'NONE', ( #306 ), #286, .T. ) ;
#275 = EDGE_LOOP ( 'NONE', ( #326, #165, #145, #323 ) ) ;
#276 = CARTESIAN_POINT ( 'NONE',  ( -13.00000000000000000, 1.592040838891559095E-15, 15.00000000000000000 ) ) ;
#277 = EDGE_CURVE ( 'NONE', #280, #296, #208, .T. ) ;
#278 = AXIS2_PLACEMENT_3D ( 'NONE', #128, #305, #33 ) ;
#279 = SECURITY_CLASSIFICATION ( '', '', #312 ) ;
#280 = VERTEX_POINT ( 'NONE', #163 ) ;
#281 = CIRCLE ( 'NONE', #179, 25.00000000000000000 ) ;
#282 = CARTESIAN_POINT ( 'NONE',  ( 0.000000000000000000, 0.000000000000000000, 40.00000000000000000 ) ) ;
#283 = CYLINDRICAL_SURFACE ( 'NONE', #97, 9.000000000000000000 ) ;
#284 = EDGE_CURVE ( 'NONE', #72, #120, #237, .T. ) ;
#285 = CARTESIAN_POINT ( 'NONE',  ( -9.000000000000000000, 1.102182119232617714E-15, 0.000000000000000000 ) ) ;
#286 = CYLINDRICAL_SURFACE ( 'NONE', #140, 25.00000000000000000 ) ;
#287 = DATE_TIME_ROLE ( 'creation_date' ) ;
#288 = CARTESIAN_POINT ( 'NONE',  ( 25.00000000000000000, 0.000000000000000000, 40.00000000000000000 ) ) ;
#289 = PERSON_AND_ORGANIZATION ( #198, #26 ) ;
#290 = CARTESIAN_POINT ( 'NONE',  ( -25.00000000000000000, 3.061616997868383043E-15, 40.00000000000000000 ) ) ;
#291 = FACE_OUTER_BOUND ( 'NONE', #43, .T. ) ;
#292 = APPLICATION_CONTEXT ( 'configuration controlled 3d designs of mechanical parts and assemblies' ) ;
#293 = CC_DESIGN_PERSON_AND_ORGANIZATION_ASSIGNMENT ( #161, #32, ( #279 ) ) ;
#294 = APPROVAL_STATUS ( 'not_yet_approved' ) ;
#295 = ORIENTED_EDGE ( 'NONE', *, *, #99, .T. ) ;
#296 = VERTEX_POINT ( 'NONE', #113 ) ;
#297 = EDGE_LOOP ( 'NONE', ( #260, #243 ) ) ;
#298 = CIRCLE ( 'NONE', #155, 13.00000000000000000 ) ;
#299 = EDGE_LOOP ( 'NONE', ( #325, #171 ) ) ;
#300 = ORIENTED_EDGE ( 'NONE', *, *, #69, .T. ) ;
#301 = APPROVAL ( #10, 'UNSPECIFIED' ) ;
#302 = VECTOR ( 'NONE', #315, 1000.000000000000000 ) ;
#303 = ADVANCED_FACE ( 'NONE', ( #143 ), #169, .F. ) ;
#304 = EDGE_CURVE ( 'NONE', #116, #42, #273, .T. ) ;
#305 = DIRECTION ( 'NONE',  ( 0.000000000000000000, 0.000000000000000000, 1.000000000000000000 ) ) ;
#306 = FACE_OUTER_BOUND ( 'NONE', #252, .T. ) ;
#307 = PERSON_AND_ORGANIZATION ( #198, #26 ) ;
#308 = CARTESIAN_POINT ( 'NONE',  ( 25.00000000000000000, 0.000000000000000000, 0.000000000000000000 ) ) ;
#309 = CIRCLE ( 'NONE', #71, 13.00000000000000000 ) ;
#310 = CARTESIAN_POINT ( 'NONE',  ( 25.00000000000000000, 0.000000000000000000, 40.00000000000000000 ) ) ;
#311 = DIRECTION ( 'NONE',  ( 1.000000000000000000, 0.000000000000000000, 0.000000000000000000 ) ) ;
#312 = SECURITY_CLASSIFICATION_LEVEL ( 'unclassified' ) ;
#313 = DIRECTION ( 'NONE',  ( -1.000000000000000000, 0.000000000000000000, 0.000000000000000000 ) ) ;
#314 = DATE_AND_TIME ( #7, #204 ) ;
#315 = DIRECTION ( 'NONE',  ( 0.000000000000000000, 0.000000000000000000, 1.000000000000000000 ) ) ;
#316 = DATE_TIME_ROLE ( 'classification_date' ) ;
#317 =( GEOMETRIC_REPRESENTATION_CONTEXT ( 3 ) GLOBAL_UNCERTAINTY_ASSIGNED_CONTEXT ( ( #76 ) ) GLOBAL_UNIT_ASSIGNED_CONTEXT ( ( #218, #185, #92 ) ) REPRESENTATION_CONTEXT ( 'NONE', 'WORKASPACE' ) );
#318 = CC_DESIGN_DATE_AND_TIME_ASSIGNMENT ( #314, #287, ( #108 ) ) ;
#319 = CARTESIAN_POINT ( 'NONE',  ( 0.000000000000000000, 0.000000000000000000, 0.000000000000000000 ) ) ;
#320 = ORIENTED_EDGE ( 'NONE', *, *, #114, .F. ) ;
#321 = ORIENTED_EDGE ( 'NONE', *, *, #304, .F. ) ;
#322 = AXIS2_PLACEMENT_3D ( 'NONE', #133, #229, #84 ) ;
#323 = ORIENTED_EDGE ( 'NONE', *, *, #328, .F. ) ;
#324 = VERTEX_POINT ( 'NONE', #211 ) ;
#325 = ORIENTED_EDGE ( 'NONE', *, *, #188, .F. ) ;
#326 = ORIENTED_EDGE ( 'NONE', *, *, #63, .F. ) ;
#327 = CARTESIAN_POINT ( 'NONE',  ( -25.00000000000000000, 3.061616997868383043E-15, 40.00000000000000000 ) ) ;
#328 = EDGE_CURVE ( 'NONE', #116, #162, #88, .T. ) ;
#329 = LOCAL_TIME ( 8, 51, 35.00000000000000000, #65 ) ;
ENDSEC;
END-ISO-10303-21;
