ISO-10303-21;
HEADER;
FILE_DESCRIPTION (( 'STEP AP203' ),
    '1' );
FILE_NAME ('bj300-12020.STEP',
    '2021-10-24T23:51:14',
    ( '' ),
    ( '' ),
    'SwSTEP 2.0',
    'SolidWorks 2020',
    '' );
FILE_SCHEMA (( 'CONFIG_CONTROL_DESIGN' ));
ENDSEC;

DATA;
#1 = VERTEX_POINT ( 'NONE', #107 ) ;
#2 = CYLINDRICAL_SURFACE ( 'NONE', #174, 10.00000000000000000 ) ;
#3 = DIRECTION ( 'NONE',  ( 1.000000000000000000, 0.000000000000000000, 0.000000000000000000 ) ) ;
#4 = AXIS2_PLACEMENT_3D ( 'NONE', #73, #93, #264 ) ;
#5 = ORIENTED_EDGE ( 'NONE', *, *, #295, .F. ) ;
#6 = ADVANCED_BREP_SHAPE_REPRESENTATION ( 'bj300-12020', ( #298, #312 ), #219 ) ;
#7 = ORIENTED_EDGE ( 'NONE', *, *, #131, .T. ) ;
#8 = EDGE_LOOP ( 'NONE', ( #62, #162 ) ) ;
#9 = EDGE_CURVE ( 'NONE', #128, #277, #149, .T. ) ;
#10 = CARTESIAN_POINT ( 'NONE',  ( 10.00000000000000000, 0.000000000000000000, 40.00000000000000000 ) ) ;
#11 = DIRECTION ( 'NONE',  ( 0.000000000000000000, 0.000000000000000000, 1.000000000000000000 ) ) ;
#12 = CC_DESIGN_APPROVAL ( #102, ( #53 ) ) ;
#13 = APPROVAL_STATUS ( 'not_yet_approved' ) ;
#14 = DIRECTION ( 'NONE',  ( 1.000000000000000000, 0.000000000000000000, 0.000000000000000000 ) ) ;
#15 = PERSON_AND_ORGANIZATION_ROLE ( 'creator' ) ;
#16 = CARTESIAN_POINT ( 'NONE',  ( 20.00000000000000000, 0.000000000000000000, 0.000000000000000000 ) ) ;
#17 = CARTESIAN_POINT ( 'NONE',  ( 10.00000000000000000, 0.000000000000000000, 7.000000000000000000 ) ) ;
#18 = AXIS2_PLACEMENT_3D ( 'NONE', #293, #302, #220 ) ;
#19 = DIRECTION ( 'NONE',  ( 1.000000000000000000, 0.000000000000000000, 0.000000000000000000 ) ) ;
#20 = DIRECTION ( 'NONE',  ( 0.000000000000000000, 0.000000000000000000, 1.000000000000000000 ) ) ;
#21 = DIRECTION ( 'NONE',  ( 1.000000000000000000, 0.000000000000000000, 0.000000000000000000 ) ) ;
#22 = ORIENTED_EDGE ( 'NONE', *, *, #325, .F. ) ;
#23 = FACE_OUTER_BOUND ( 'NONE', #78, .T. ) ;
#24 = AXIS2_PLACEMENT_3D ( 'NONE', #87, #265, #315 ) ;
#25 = PERSON_AND_ORGANIZATION ( #166, #75 ) ;
#26 = LOCAL_TIME ( 8, 51, 14.00000000000000000, #297 ) ;
#27 = DIRECTION ( 'NONE',  ( -1.000000000000000000, 0.000000000000000000, 0.000000000000000000 ) ) ;
#28 = ORIENTED_EDGE ( 'NONE', *, *, #9, .T. ) ;
#29 = DATE_AND_TIME ( #229, #258 ) ;
#30 = CC_DESIGN_PERSON_AND_ORGANIZATION_ASSIGNMENT ( #157, #55, ( #143 ) ) ;
#31 = ORIENTED_EDGE ( 'NONE', *, *, #307, .F. ) ;
#32 = COORDINATED_UNIVERSAL_TIME_OFFSET ( 9, 0, .AHEAD. ) ;
#33 = AXIS2_PLACEMENT_3D ( 'NONE', #196, #20, #179 ) ;
#34 = APPROVAL_PERSON_ORGANIZATION ( #25, #240, #153 ) ;
#35 = LINE ( 'NONE', #287, #41 ) ;
#36 = ORIENTED_EDGE ( 'NONE', *, *, #223, .T. ) ;
#37 = ADVANCED_FACE ( 'NONE', ( #236 ), #2, .F. ) ;
#38 = EDGE_LOOP ( 'NONE', ( #31, #58, #156, #135 ) ) ;
#39 = DIRECTION ( 'NONE',  ( 0.000000000000000000, 0.000000000000000000, 1.000000000000000000 ) ) ;
#40 = AXIS2_PLACEMENT_3D ( 'NONE', #199, #89, #268 ) ;
#41 = VECTOR ( 'NONE', #136, 1000.000000000000000 ) ;
#42 = ORIENTED_EDGE ( 'NONE', *, *, #223, .F. ) ;
#43 = DIRECTION ( 'NONE',  ( 0.000000000000000000, 0.000000000000000000, 1.000000000000000000 ) ) ;
#44 = CARTESIAN_POINT ( 'NONE',  ( 0.000000000000000000, 0.000000000000000000, 40.00000000000000000 ) ) ;
#45 = PERSON_AND_ORGANIZATION ( #166, #75 ) ;
#46 = CARTESIAN_POINT ( 'NONE',  ( -20.00000000000000000, 2.449293598294706513E-15, 40.00000000000000000 ) ) ;
#47 = COORDINATED_UNIVERSAL_TIME_OFFSET ( 9, 0, .AHEAD. ) ;
#48 = CARTESIAN_POINT ( 'NONE',  ( 0.000000000000000000, 0.000000000000000000, 20.00000000000000000 ) ) ;
#49 = CC_DESIGN_PERSON_AND_ORGANIZATION_ASSIGNMENT ( #273, #142, ( #53 ) ) ;
#50 = DATE_AND_TIME ( #324, #26 ) ;
#51 = CARTESIAN_POINT ( 'NONE',  ( 7.000000000000000000, 0.000000000000000000, 0.000000000000000000 ) ) ;
#52 = CIRCLE ( 'NONE', #283, 7.000000000000000000 ) ;
#53 = PRODUCT_DEFINITION ( 'UNKNOWN', '', #203, #190 ) ;
#54 = DIRECTION ( 'NONE',  ( 0.000000000000000000, 0.000000000000000000, 1.000000000000000000 ) ) ;
#55 = PERSON_AND_ORGANIZATION_ROLE ( 'classification_officer' ) ;
#56 = EDGE_LOOP ( 'NONE', ( #249, #66, #279, #138 ) ) ;
#57 = CARTESIAN_POINT ( 'NONE',  ( 0.000000000000000000, 0.000000000000000000, 0.000000000000000000 ) ) ;
#58 = ORIENTED_EDGE ( 'NONE', *, *, #232, .F. ) ;
#59 = ADVANCED_FACE ( 'NONE', ( #65, #163 ), #314, .F. ) ;
#60 = CARTESIAN_POINT ( 'NONE',  ( 20.00000000000000000, 0.000000000000000000, 20.00000000000000000 ) ) ;
#61 = CARTESIAN_POINT ( 'NONE',  ( -10.00000000000000000, 1.224646799147353256E-15, 7.000000000000000000 ) ) ;
#62 = ORIENTED_EDGE ( 'NONE', *, *, #188, .F. ) ;
#63 = EDGE_LOOP ( 'NONE', ( #101, #5 ) ) ;
#64 = CARTESIAN_POINT ( 'NONE',  ( 0.000000000000000000, 0.000000000000000000, 20.00000000000000000 ) ) ;
#65 = FACE_OUTER_BOUND ( 'NONE', #204, .T. ) ;
#66 = ORIENTED_EDGE ( 'NONE', *, *, #280, .T. ) ;
#67 = APPLICATION_CONTEXT ( 'configuration controlled 3d designs of mechanical parts and assemblies' ) ;
#68 = CARTESIAN_POINT ( 'NONE',  ( 0.000000000000000000, 0.000000000000000000, 40.00000000000000000 ) ) ;
#69 = CIRCLE ( 'NONE', #326, 20.00000000000000000 ) ;
#70 = ORIENTED_EDGE ( 'NONE', *, *, #310, .T. ) ;
#71 = DIRECTION ( 'NONE',  ( 0.000000000000000000, 0.000000000000000000, 1.000000000000000000 ) ) ;
#72 = LINE ( 'NONE', #46, #213 ) ;
#73 = CARTESIAN_POINT ( 'NONE',  ( 0.000000000000000000, 0.000000000000000000, 40.00000000000000000 ) ) ;
#74 = ADVANCED_FACE ( 'NONE', ( #195, #121 ), #171, .F. ) ;
#75 = ORGANIZATION ( 'UNSPECIFIED', 'UNSPECIFIED', '' ) ;
#76 = SECURITY_CLASSIFICATION_LEVEL ( 'unclassified' ) ;
#77 = FACE_BOUND ( 'NONE', #63, .T. ) ;
#78 = EDGE_LOOP ( 'NONE', ( #70, #28 ) ) ;
#79 = ORIENTED_EDGE ( 'NONE', *, *, #280, .F. ) ;
#80 = CC_DESIGN_PERSON_AND_ORGANIZATION_ASSIGNMENT ( #122, #202, ( #203 ) ) ;
#81 = DIRECTION ( 'NONE',  ( 1.000000000000000000, 0.000000000000000000, 0.000000000000000000 ) ) ;
#82 = ORIENTED_EDGE ( 'NONE', *, *, #9, .F. ) ;
#83 = VERTEX_POINT ( 'NONE', #296 ) ;
#84 = VERTEX_POINT ( 'NONE', #17 ) ;
#85 = CIRCLE ( 'NONE', #316, 20.00000000000000000 ) ;
#86 = CARTESIAN_POINT ( 'NONE',  ( 0.000000000000000000, 0.000000000000000000, 40.00000000000000000 ) ) ;
#87 = CARTESIAN_POINT ( 'NONE',  ( 7.000000000000000000, 0.000000000000000000, 0.000000000000000000 ) ) ;
#88 = CC_DESIGN_SECURITY_CLASSIFICATION ( #143, ( #203 ) ) ;
#89 = DIRECTION ( 'NONE',  ( 0.000000000000000000, 0.000000000000000000, 1.000000000000000000 ) ) ;
#90 = DIRECTION ( 'NONE',  ( 1.000000000000000000, 0.000000000000000000, 0.000000000000000000 ) ) ;
#91 = EDGE_CURVE ( 'NONE', #83, #128, #72, .T. ) ;
#92 = APPROVAL_DATE_TIME ( #222, #237 ) ;
#93 = DIRECTION ( 'NONE',  ( 0.000000000000000000, 0.000000000000000000, 1.000000000000000000 ) ) ;
#94 = CIRCLE ( 'NONE', #139, 10.00000000000000000 ) ;
#95 = APPLICATION_CONTEXT ( 'configuration controlled 3d designs of mechanical parts and assemblies' ) ;
#96 = APPLICATION_PROTOCOL_DEFINITION ( 'international standard', 'config_control_design', 1994, #95 ) ;
#97 = CARTESIAN_POINT ( 'NONE',  ( 0.000000000000000000, 0.000000000000000000, 0.000000000000000000 ) ) ;
#98 = COORDINATED_UNIVERSAL_TIME_OFFSET ( 9, 0, .AHEAD. ) ;
#99 = DIRECTION ( 'NONE',  ( 1.000000000000000000, 0.000000000000000000, 0.000000000000000000 ) ) ;
#100 = APPROVAL_DATE_TIME ( #29, #240 ) ;
#101 = ORIENTED_EDGE ( 'NONE', *, *, #170, .F. ) ;
#102 = APPROVAL ( #13, 'UNSPECIFIED' ) ;
#103 = DIRECTION ( 'NONE',  ( 0.000000000000000000, 0.000000000000000000, 1.000000000000000000 ) ) ;
#104 = CIRCLE ( 'NONE', #198, 7.000000000000000000 ) ;
#105 = ORIENTED_EDGE ( 'NONE', *, *, #194, .T. ) ;
#106 = ADVANCED_FACE ( 'NONE', ( #270 ), #320, .F. ) ;
#107 = CARTESIAN_POINT ( 'NONE',  ( -7.000000000000000000, 8.572527594031473190E-16, 0.000000000000000000 ) ) ;
#108 = CARTESIAN_POINT ( 'NONE',  ( 0.000000000000000000, 0.000000000000000000, 20.00000000000000000 ) ) ;
#109 = CARTESIAN_POINT ( 'NONE',  ( -7.000000000000000000, 8.572527594031473190E-16, 40.00000000000000000 ) ) ;
#110 = LOCAL_TIME ( 8, 51, 14.00000000000000000, #47 ) ;
#111 = EDGE_CURVE ( 'NONE', #257, #277, #176, .T. ) ;
#112 = CARTESIAN_POINT ( 'NONE',  ( -7.000000000000000000, 8.572527594031473190E-16, 7.000000000000000000 ) ) ;
#113 = PRODUCT_RELATED_PRODUCT_CATEGORY ( 'detail', '', ( #151 ) ) ;
#114 = VERTEX_POINT ( 'NONE', #51 ) ;
#115 = FACE_OUTER_BOUND ( 'NONE', #38, .T. ) ;
#116 = EDGE_LOOP ( 'NONE', ( #193, #7 ) ) ;
#117 = DIRECTION ( 'NONE',  ( 0.000000000000000000, 0.000000000000000000, 1.000000000000000000 ) ) ;
#118 = DATE_AND_TIME ( #243, #160 ) ;
#119 = DIRECTION ( 'NONE',  ( 0.000000000000000000, 0.000000000000000000, -1.000000000000000000 ) ) ;
#120 = CALENDAR_DATE ( 2021, 25, 10 ) ;
#121 = FACE_OUTER_BOUND ( 'NONE', #116, .T. ) ;
#122 = PERSON_AND_ORGANIZATION ( #166, #75 ) ;
#123 = ADVANCED_FACE ( 'NONE', ( #144 ), #242, .T. ) ;
#124 = CARTESIAN_POINT ( 'NONE',  ( -10.00000000000000000, 1.224646799147353256E-15, 20.00000000000000000 ) ) ;
#125 =( NAMED_UNIT ( * ) PLANE_ANGLE_UNIT ( ) SI_UNIT ( $, .RADIAN. ) );
#126 = CLOSED_SHELL ( 'NONE', ( #212, #248, #106, #74, #266, #59, #123, #210, #37 ) ) ;
#127 = DIRECTION ( 'NONE',  ( 0.000000000000000000, 0.000000000000000000, 1.000000000000000000 ) ) ;
#128 = VERTEX_POINT ( 'NONE', #299 ) ;
#129 = CALENDAR_DATE ( 2021, 25, 10 ) ;
#130 = CARTESIAN_POINT ( 'NONE',  ( 0.000000000000000000, 0.000000000000000000, 40.00000000000000000 ) ) ;
#131 = EDGE_CURVE ( 'NONE', #241, #84, #281, .T. ) ;
#132 = VERTEX_POINT ( 'NONE', #124 ) ;
#133 = VECTOR ( 'NONE', #39, 1000.000000000000000 ) ;
#134 = COORDINATED_UNIVERSAL_TIME_OFFSET ( 9, 0, .AHEAD. ) ;
#135 = ORIENTED_EDGE ( 'NONE', *, *, #188, .T. ) ;
#136 = DIRECTION ( 'NONE',  ( 0.000000000000000000, 0.000000000000000000, 1.000000000000000000 ) ) ;
#137 = DIRECTION ( 'NONE',  ( 0.000000000000000000, 0.000000000000000000, 1.000000000000000000 ) ) ;
#138 = ORIENTED_EDGE ( 'NONE', *, *, #263, .F. ) ;
#139 = AXIS2_PLACEMENT_3D ( 'NONE', #48, #146, #14 ) ;
#140 = CC_DESIGN_PERSON_AND_ORGANIZATION_ASSIGNMENT ( #147, #15, ( #203 ) ) ;
#141 = EDGE_CURVE ( 'NONE', #255, #231, #225, .T. ) ;
#142 = PERSON_AND_ORGANIZATION_ROLE ( 'creator' ) ;
#143 = SECURITY_CLASSIFICATION ( '', '', #76 ) ;
#144 = FACE_OUTER_BOUND ( 'NONE', #154, .T. ) ;
#145 = PERSON_AND_ORGANIZATION ( #166, #75 ) ;
#146 = DIRECTION ( 'NONE',  ( 0.000000000000000000, 0.000000000000000000, 1.000000000000000000 ) ) ;
#147 = PERSON_AND_ORGANIZATION ( #166, #75 ) ;
#148 = DIRECTION ( 'NONE',  ( 1.000000000000000000, 0.000000000000000000, 0.000000000000000000 ) ) ;
#149 = CIRCLE ( 'NONE', #321, 20.00000000000000000 ) ;
#150 = APPLICATION_PROTOCOL_DEFINITION ( 'international standard', 'config_control_design', 1994, #67 ) ;
#151 = PRODUCT ( 'bj300-12020', 'bj300-12020', '', ( #227 ) ) ;
#152 = ORIENTED_EDGE ( 'NONE', *, *, #307, .T. ) ;
#153 = APPROVAL_ROLE ( '' ) ;
#154 = EDGE_LOOP ( 'NONE', ( #329, #36, #276, #82 ) ) ;
#155 = VECTOR ( 'NONE', #180, 1000.000000000000000 ) ;
#156 = ORIENTED_EDGE ( 'NONE', *, *, #260, .T. ) ;
#157 = PERSON_AND_ORGANIZATION ( #166, #75 ) ;
#158 = VERTEX_POINT ( 'NONE', #244 ) ;
#159 = AXIS2_PLACEMENT_3D ( 'NONE', #224, #119, #246 ) ;
#160 = LOCAL_TIME ( 8, 51, 14.00000000000000000, #98 ) ;
#161 = CARTESIAN_POINT ( 'NONE',  ( 20.00000000000000000, 0.000000000000000000, 20.00000000000000000 ) ) ;
#162 = ORIENTED_EDGE ( 'NONE', *, *, #141, .F. ) ;
#163 = FACE_BOUND ( 'NONE', #284, .T. ) ;
#164 = CC_DESIGN_PERSON_AND_ORGANIZATION_ASSIGNMENT ( #45, #200, ( #151 ) ) ;
#165 = LINE ( 'NONE', #10, #215 ) ;
#166 = PERSON ( 'UNSPECIFIED', 'UNSPECIFIED', 'UNSPECIFIED', ('UNSPECIFIED'), ('UNSPECIFIED'), ('UNSPECIFIED') ) ;
#167 = CIRCLE ( 'NONE', #285, 10.00000000000000000 ) ;
#168 = ORIENTED_EDGE ( 'NONE', *, *, #325, .T. ) ;
#169 = CARTESIAN_POINT ( 'NONE',  ( 7.000000000000000000, 0.000000000000000000, 40.00000000000000000 ) ) ;
#170 = EDGE_CURVE ( 'NONE', #158, #132, #94, .T. ) ;
#171 = PLANE ( 'NONE',  #159 ) ;
#172 =( LENGTH_UNIT ( ) NAMED_UNIT ( * ) SI_UNIT ( .MILLI., .METRE. ) );
#173 = CC_DESIGN_DATE_AND_TIME_ASSIGNMENT ( #304, #327, ( #143 ) ) ;
#174 = AXIS2_PLACEMENT_3D ( 'NONE', #86, #191, #288 ) ;
#175 = AXIS2_PLACEMENT_3D ( 'NONE', #60, #228, #27 ) ;
#176 = LINE ( 'NONE', #318, #155 ) ;
#177 = EDGE_CURVE ( 'NONE', #84, #241, #167, .T. ) ;
#178 = CARTESIAN_POINT ( 'NONE',  ( 0.000000000000000000, 0.000000000000000000, 7.000000000000000000 ) ) ;
#179 = DIRECTION ( 'NONE',  ( 1.000000000000000000, 0.000000000000000000, 0.000000000000000000 ) ) ;
#180 = DIRECTION ( 'NONE',  ( 0.000000000000000000, 0.000000000000000000, 1.000000000000000000 ) ) ;
#181 = CIRCLE ( 'NONE', #33, 20.00000000000000000 ) ;
#182 = CYLINDRICAL_SURFACE ( 'NONE', #230, 20.00000000000000000 ) ;
#183 = CARTESIAN_POINT ( 'NONE',  ( 0.000000000000000000, 0.000000000000000000, 0.000000000000000000 ) ) ;
#184 = LINE ( 'NONE', #169, #282 ) ;
#185 = AXIS2_PLACEMENT_3D ( 'NONE', #44, #11, #148 ) ;
#186 = AXIS2_PLACEMENT_3D ( 'NONE', #68, #117, #90 ) ;
#187 = CC_DESIGN_APPROVAL ( #240, ( #143 ) ) ;
#188 = EDGE_CURVE ( 'NONE', #231, #255, #104, .T. ) ;
#189 = PLANE ( 'NONE',  #175 ) ;
#190 = DESIGN_CONTEXT ( 'detailed design', #95, 'design' ) ;
#191 = DIRECTION ( 'NONE',  ( 0.000000000000000000, 0.000000000000000000, 1.000000000000000000 ) ) ;
#192 = CC_DESIGN_DATE_AND_TIME_ASSIGNMENT ( #118, #301, ( #53 ) ) ;
#193 = ORIENTED_EDGE ( 'NONE', *, *, #177, .T. ) ;
#194 = EDGE_CURVE ( 'NONE', #1, #114, #52, .T. ) ;
#195 = FACE_BOUND ( 'NONE', #8, .T. ) ;
#196 = CARTESIAN_POINT ( 'NONE',  ( 0.000000000000000000, 0.000000000000000000, 0.000000000000000000 ) ) ;
#197 = DIRECTION ( 'NONE',  ( 0.000000000000000000, 0.000000000000000000, 1.000000000000000000 ) ) ;
#198 = AXIS2_PLACEMENT_3D ( 'NONE', #323, #278, #99 ) ;
#199 = CARTESIAN_POINT ( 'NONE',  ( 0.000000000000000000, 0.000000000000000000, 7.000000000000000000 ) ) ;
#200 = PERSON_AND_ORGANIZATION_ROLE ( 'design_owner' ) ;
#201 = CARTESIAN_POINT ( 'NONE',  ( 7.000000000000000000, 0.000000000000000000, 7.000000000000000000 ) ) ;
#202 = PERSON_AND_ORGANIZATION_ROLE ( 'design_supplier' ) ;
#203 = PRODUCT_DEFINITION_FORMATION_WITH_SPECIFIED_SOURCE ( 'ANY', '', #151, .NOT_KNOWN. ) ;
#204 = EDGE_LOOP ( 'NONE', ( #22, #42 ) ) ;
#205 = ORIENTED_EDGE ( 'NONE', *, *, #232, .T. ) ;
#206 = SHAPE_DEFINITION_REPRESENTATION ( #291, #6 ) ;
#207 = DIRECTION ( 'NONE',  ( 1.000000000000000000, 0.000000000000000000, 0.000000000000000000 ) ) ;
#208 = ORIENTED_EDGE ( 'NONE', *, *, #170, .T. ) ;
#209 = LOCAL_TIME ( 8, 51, 14.00000000000000000, #32 ) ;
#210 = ADVANCED_FACE ( 'NONE', ( #77, #23 ), #189, .F. ) ;
#211 = CARTESIAN_POINT ( 'NONE',  ( 0.000000000000000000, 0.000000000000000000, 20.00000000000000000 ) ) ;
#212 = ADVANCED_FACE ( 'NONE', ( #254 ), #328, .F. ) ;
#213 = VECTOR ( 'NONE', #197, 1000.000000000000000 ) ;
#214 = ORIENTED_EDGE ( 'NONE', *, *, #141, .T. ) ;
#215 = VECTOR ( 'NONE', #261, 1000.000000000000000 ) ;
#216 = ORIENTED_EDGE ( 'NONE', *, *, #177, .F. ) ;
#217 = UNCERTAINTY_MEASURE_WITH_UNIT (LENGTH_MEASURE( 1.000000000000000082E-05 ), #172, 'distance_accuracy_value', 'NONE');
#218 = CYLINDRICAL_SURFACE ( 'NONE', #186, 7.000000000000000000 ) ;
#219 =( GEOMETRIC_REPRESENTATION_CONTEXT ( 3 ) GLOBAL_UNCERTAINTY_ASSIGNED_CONTEXT ( ( #217 ) ) GLOBAL_UNIT_ASSIGNED_CONTEXT ( ( #172, #125, #294 ) ) REPRESENTATION_CONTEXT ( 'NONE', 'WORKASPACE' ) );
#220 = DIRECTION ( 'NONE',  ( 1.000000000000000000, 0.000000000000000000, 0.000000000000000000 ) ) ;
#221 = APPROVAL_STATUS ( 'not_yet_approved' ) ;
#222 = DATE_AND_TIME ( #120, #110 ) ;
#223 = EDGE_CURVE ( 'NONE', #83, #257, #69, .T. ) ;
#224 = CARTESIAN_POINT ( 'NONE',  ( 10.00000000000000000, 0.000000000000000000, 7.000000000000000000 ) ) ;
#225 = CIRCLE ( 'NONE', #18, 7.000000000000000000 ) ;
#226 = AXIS2_PLACEMENT_3D ( 'NONE', #64, #289, #3 ) ;
#227 = MECHANICAL_CONTEXT ( 'NONE', #67, 'mechanical' ) ;
#228 = DIRECTION ( 'NONE',  ( 0.000000000000000000, 0.000000000000000000, -1.000000000000000000 ) ) ;
#229 = CALENDAR_DATE ( 2021, 25, 10 ) ;
#230 = AXIS2_PLACEMENT_3D ( 'NONE', #275, #54, #21 ) ;
#231 = VERTEX_POINT ( 'NONE', #201 ) ;
#232 = EDGE_CURVE ( 'NONE', #114, #1, #292, .T. ) ;
#233 = DIRECTION ( 'NONE',  ( 0.000000000000000000, 0.000000000000000000, 1.000000000000000000 ) ) ;
#234 = EDGE_LOOP ( 'NONE', ( #168, #239, #313, #306 ) ) ;
#235 = LINE ( 'NONE', #109, #133 ) ;
#236 = FACE_OUTER_BOUND ( 'NONE', #311, .T. ) ;
#237 = APPROVAL ( #221, 'UNSPECIFIED' ) ;
#238 = AXIS2_PLACEMENT_3D ( 'NONE', #130, #233, #81 ) ;
#239 = ORIENTED_EDGE ( 'NONE', *, *, #91, .T. ) ;
#240 = APPROVAL ( #250, 'UNSPECIFIED' ) ;
#241 = VERTEX_POINT ( 'NONE', #61 ) ;
#242 = CYLINDRICAL_SURFACE ( 'NONE', #185, 20.00000000000000000 ) ;
#243 = CALENDAR_DATE ( 2021, 25, 10 ) ;
#244 = CARTESIAN_POINT ( 'NONE',  ( 10.00000000000000000, 0.000000000000000000, 20.00000000000000000 ) ) ;
#245 = CARTESIAN_POINT ( 'NONE',  ( 0.000000000000000000, 0.000000000000000000, 0.000000000000000000 ) ) ;
#246 = DIRECTION ( 'NONE',  ( -1.000000000000000000, 0.000000000000000000, 0.000000000000000000 ) ) ;
#247 = DIRECTION ( 'NONE',  ( 1.000000000000000000, 0.000000000000000000, 0.000000000000000000 ) ) ;
#248 = ADVANCED_FACE ( 'NONE', ( #303 ), #182, .T. ) ;
#249 = ORIENTED_EDGE ( 'NONE', *, *, #131, .F. ) ;
#250 = APPROVAL_STATUS ( 'not_yet_approved' ) ;
#251 = EDGE_LOOP ( 'NONE', ( #262, #152, #214, #290 ) ) ;
#252 = APPROVAL_PERSON_ORGANIZATION ( #267, #237, #317 ) ;
#253 = DIRECTION ( 'NONE',  ( 0.000000000000000000, 0.000000000000000000, 1.000000000000000000 ) ) ;
#254 = FACE_OUTER_BOUND ( 'NONE', #56, .T. ) ;
#255 = VERTEX_POINT ( 'NONE', #112 ) ;
#256 = APPROVAL_PERSON_ORGANIZATION ( #145, #102, #269 ) ;
#257 = VERTEX_POINT ( 'NONE', #16 ) ;
#258 = LOCAL_TIME ( 8, 51, 14.00000000000000000, #134 ) ;
#259 = ORIENTED_EDGE ( 'NONE', *, *, #263, .T. ) ;
#260 = EDGE_CURVE ( 'NONE', #114, #231, #184, .T. ) ;
#261 = DIRECTION ( 'NONE',  ( 0.000000000000000000, 0.000000000000000000, 1.000000000000000000 ) ) ;
#262 = ORIENTED_EDGE ( 'NONE', *, *, #194, .F. ) ;
#263 = EDGE_CURVE ( 'NONE', #84, #158, #165, .T. ) ;
#264 = DIRECTION ( 'NONE',  ( 1.000000000000000000, 0.000000000000000000, 0.000000000000000000 ) ) ;
#265 = DIRECTION ( 'NONE',  ( 0.000000000000000000, 0.000000000000000000, 1.000000000000000000 ) ) ;
#266 = ADVANCED_FACE ( 'NONE', ( #115 ), #218, .F. ) ;
#267 = PERSON_AND_ORGANIZATION ( #166, #75 ) ;
#268 = DIRECTION ( 'NONE',  ( 1.000000000000000000, 0.000000000000000000, 0.000000000000000000 ) ) ;
#269 = APPROVAL_ROLE ( '' ) ;
#270 = FACE_OUTER_BOUND ( 'NONE', #251, .T. ) ;
#271 = APPROVAL_DATE_TIME ( #50, #102 ) ;
#272 = DIRECTION ( 'NONE',  ( 1.000000000000000000, 0.000000000000000000, 0.000000000000000000 ) ) ;
#273 = PERSON_AND_ORGANIZATION ( #166, #75 ) ;
#274 = CIRCLE ( 'NONE', #226, 10.00000000000000000 ) ;
#275 = CARTESIAN_POINT ( 'NONE',  ( 0.000000000000000000, 0.000000000000000000, 40.00000000000000000 ) ) ;
#276 = ORIENTED_EDGE ( 'NONE', *, *, #111, .T. ) ;
#277 = VERTEX_POINT ( 'NONE', #161 ) ;
#278 = DIRECTION ( 'NONE',  ( 0.000000000000000000, 0.000000000000000000, 1.000000000000000000 ) ) ;
#279 = ORIENTED_EDGE ( 'NONE', *, *, #295, .T. ) ;
#280 = EDGE_CURVE ( 'NONE', #241, #132, #35, .T. ) ;
#281 = CIRCLE ( 'NONE', #40, 10.00000000000000000 ) ;
#282 = VECTOR ( 'NONE', #43, 1000.000000000000000 ) ;
#283 = AXIS2_PLACEMENT_3D ( 'NONE', #97, #103, #308 ) ;
#284 = EDGE_LOOP ( 'NONE', ( #205, #105 ) ) ;
#285 = AXIS2_PLACEMENT_3D ( 'NONE', #178, #322, #272 ) ;
#286 = DIRECTION ( 'NONE',  ( 1.000000000000000000, 0.000000000000000000, 0.000000000000000000 ) ) ;
#287 = CARTESIAN_POINT ( 'NONE',  ( -10.00000000000000000, 1.224646799147353256E-15, 40.00000000000000000 ) ) ;
#288 = DIRECTION ( 'NONE',  ( 1.000000000000000000, 0.000000000000000000, 0.000000000000000000 ) ) ;
#289 = DIRECTION ( 'NONE',  ( 0.000000000000000000, 0.000000000000000000, 1.000000000000000000 ) ) ;
#290 = ORIENTED_EDGE ( 'NONE', *, *, #260, .F. ) ;
#291 = PRODUCT_DEFINITION_SHAPE ( 'NONE', 'NONE',  #53 ) ;
#292 = CIRCLE ( 'NONE', #305, 7.000000000000000000 ) ;
#293 = CARTESIAN_POINT ( 'NONE',  ( 0.000000000000000000, 0.000000000000000000, 7.000000000000000000 ) ) ;
#294 =( NAMED_UNIT ( * ) SI_UNIT ( $, .STERADIAN. ) SOLID_ANGLE_UNIT ( ) );
#295 = EDGE_CURVE ( 'NONE', #132, #158, #274, .T. ) ;
#296 = CARTESIAN_POINT ( 'NONE',  ( -20.00000000000000000, 2.449293598294706513E-15, 0.000000000000000000 ) ) ;
#297 = COORDINATED_UNIVERSAL_TIME_OFFSET ( 9, 0, .AHEAD. ) ;
#298 = MANIFOLD_SOLID_BREP ( 'Imported1', #126 ) ;
#299 = CARTESIAN_POINT ( 'NONE',  ( -20.00000000000000000, 2.449293598294706513E-15, 20.00000000000000000 ) ) ;
#300 = CC_DESIGN_APPROVAL ( #237, ( #203 ) ) ;
#301 = DATE_TIME_ROLE ( 'creation_date' ) ;
#302 = DIRECTION ( 'NONE',  ( 0.000000000000000000, 0.000000000000000000, 1.000000000000000000 ) ) ;
#303 = FACE_OUTER_BOUND ( 'NONE', #234, .T. ) ;
#304 = DATE_AND_TIME ( #129, #209 ) ;
#305 = AXIS2_PLACEMENT_3D ( 'NONE', #57, #253, #309 ) ;
#306 = ORIENTED_EDGE ( 'NONE', *, *, #111, .F. ) ;
#307 = EDGE_CURVE ( 'NONE', #1, #255, #235, .T. ) ;
#308 = DIRECTION ( 'NONE',  ( 1.000000000000000000, 0.000000000000000000, 0.000000000000000000 ) ) ;
#309 = DIRECTION ( 'NONE',  ( 1.000000000000000000, 0.000000000000000000, 0.000000000000000000 ) ) ;
#310 = EDGE_CURVE ( 'NONE', #277, #128, #85, .T. ) ;
#311 = EDGE_LOOP ( 'NONE', ( #79, #216, #259, #208 ) ) ;
#312 = AXIS2_PLACEMENT_3D ( 'NONE', #245, #71, #247 ) ;
#313 = ORIENTED_EDGE ( 'NONE', *, *, #310, .F. ) ;
#314 = PLANE ( 'NONE',  #24 ) ;
#315 = DIRECTION ( 'NONE',  ( 1.000000000000000000, 0.000000000000000000, 0.000000000000000000 ) ) ;
#316 = AXIS2_PLACEMENT_3D ( 'NONE', #211, #319, #19 ) ;
#317 = APPROVAL_ROLE ( '' ) ;
#318 = CARTESIAN_POINT ( 'NONE',  ( 20.00000000000000000, 0.000000000000000000, 40.00000000000000000 ) ) ;
#319 = DIRECTION ( 'NONE',  ( 0.000000000000000000, 0.000000000000000000, 1.000000000000000000 ) ) ;
#320 = CYLINDRICAL_SURFACE ( 'NONE', #4, 7.000000000000000000 ) ;
#321 = AXIS2_PLACEMENT_3D ( 'NONE', #108, #137, #286 ) ;
#322 = DIRECTION ( 'NONE',  ( 0.000000000000000000, 0.000000000000000000, 1.000000000000000000 ) ) ;
#323 = CARTESIAN_POINT ( 'NONE',  ( 0.000000000000000000, 0.000000000000000000, 7.000000000000000000 ) ) ;
#324 = CALENDAR_DATE ( 2021, 25, 10 ) ;
#325 = EDGE_CURVE ( 'NONE', #257, #83, #181, .T. ) ;
#326 = AXIS2_PLACEMENT_3D ( 'NONE', #183, #127, #207 ) ;
#327 = DATE_TIME_ROLE ( 'classification_date' ) ;
#328 = CYLINDRICAL_SURFACE ( 'NONE', #238, 10.00000000000000000 ) ;
#329 = ORIENTED_EDGE ( 'NONE', *, *, #91, .F. ) ;
ENDSEC;
END-ISO-10303-21;
