ISO-10303-21;
HEADER;
FILE_DESCRIPTION (( 'STEP AP203' ),
    '1' );
FILE_NAME ('bj720-10001.STEP',
    '2021-10-24T23:59:11',
    ( '' ),
    ( '' ),
    'SwSTEP 2.0',
    'SolidWorks 2020',
    '' );
FILE_SCHEMA (( 'CONFIG_CONTROL_DESIGN' ));
ENDSEC;

DATA;
#1 = ORIENTED_EDGE ( 'NONE', *, *, #301, .T. ) ;
#2 = ORIENTED_EDGE ( 'NONE', *, *, #342, .F. ) ;
#3 = VERTEX_POINT ( 'NONE', #115 ) ;
#4 =( GEOMETRIC_REPRESENTATION_CONTEXT ( 3 ) GLOBAL_UNCERTAINTY_ASSIGNED_CONTEXT ( ( #263 ) ) GLOBAL_UNIT_ASSIGNED_CONTEXT ( ( #134, #234, #323 ) ) REPRESENTATION_CONTEXT ( 'NONE', 'WORKASPACE' ) );
#5 = ORIENTED_EDGE ( 'NONE', *, *, #149, .F. ) ;
#6 = CARTESIAN_POINT ( 'NONE',  ( -4.999999999999982236, 6.123233995736743603E-16, 1.999999999999984457 ) ) ;
#7 = DIRECTION ( 'NONE',  ( 1.000000000000000000, 0.000000000000000000, -3.083952846180990083E-15 ) ) ;
#8 = AXIS2_PLACEMENT_3D ( 'NONE', #316, #248, #163 ) ;
#9 = DATE_TIME_ROLE ( 'creation_date' ) ;
#10 = ORIENTED_EDGE ( 'NONE', *, *, #285, .T. ) ;
#11 = PRODUCT_RELATED_PRODUCT_CATEGORY ( 'detail', '', ( #103 ) ) ;
#12 = DIRECTION ( 'NONE',  ( 1.000000000000000000, 0.000000000000000000, -3.122502256758252770E-15 ) ) ;
#13 = CIRCLE ( 'NONE', #128, 1.500000000000000000 ) ;
#14 = APPROVAL_PERSON_ORGANIZATION ( #245, #203, #328 ) ;
#15 = ADVANCED_FACE ( 'NONE', ( #321 ), #346, .F. ) ;
#16 = CARTESIAN_POINT ( 'NONE',  ( 0.000000000000000000, 0.000000000000000000, 2.000000000000000000 ) ) ;
#17 = APPROVAL_DATE_TIME ( #105, #96 ) ;
#18 = EDGE_CURVE ( 'NONE', #125, #232, #88, .T. ) ;
#19 = CARTESIAN_POINT ( 'NONE',  ( 1.499999999999930722, 0.000000000000000000, 24.00000000000000000 ) ) ;
#20 = COORDINATED_UNIVERSAL_TIME_OFFSET ( 9, 0, .AHEAD. ) ;
#21 = LINE ( 'NONE', #222, #337 ) ;
#22 = DIRECTION ( 'NONE',  ( 1.000000000000000000, 0.000000000000000000, -2.775557561562891351E-15 ) ) ;
#23 = LOCAL_TIME ( 8, 59, 11.00000000000000000, #180 ) ;
#24 = VERTEX_POINT ( 'NONE', #41 ) ;
#25 = ADVANCED_FACE ( 'NONE', ( #122 ), #195, .T. ) ;
#26 = ORIENTED_EDGE ( 'NONE', *, *, #344, .T. ) ;
#27 = ORIENTED_EDGE ( 'NONE', *, *, #231, .T. ) ;
#28 = AXIS2_PLACEMENT_3D ( 'NONE', #297, #251, #97 ) ;
#29 = VECTOR ( 'NONE', #155, 1000.000000000000000 ) ;
#30 = PLANE ( 'NONE',  #229 ) ;
#31 = CONICAL_SURFACE ( 'NONE', #113, 5.000000000000000000, 0.5235987755982992597 ) ;
#32 = ORIENTED_EDGE ( 'NONE', *, *, #310, .T. ) ;
#33 = CARTESIAN_POINT ( 'NONE',  ( -5.000000000000069278, 6.123233995736762338E-16, 26.99999999999998579 ) ) ;
#34 = LINE ( 'NONE', #324, #116 ) ;
#35 = CC_DESIGN_APPROVAL ( #203, ( #141 ) ) ;
#36 = APPLICATION_CONTEXT ( 'configuration controlled 3d designs of mechanical parts and assemblies' ) ;
#37 = DIRECTION ( 'NONE',  ( -3.083952846180990083E-15, 0.000000000000000000, 1.000000000000000000 ) ) ;
#38 = ORIENTED_EDGE ( 'NONE', *, *, #90, .F. ) ;
#39 = EDGE_CURVE ( 'NONE', #306, #339, #212, .T. ) ;
#40 = PERSON_AND_ORGANIZATION ( #207, #206 ) ;
#41 = CARTESIAN_POINT ( 'NONE',  ( 3.845299461620744985, 0.000000000000000000, -1.185872221908352580E-14 ) ) ;
#42 = PERSON_AND_ORGANIZATION_ROLE ( 'creator' ) ;
#43 = CARTESIAN_POINT ( 'NONE',  ( 5.000000000000000000, 0.000000000000000000, 1.999999999999984457 ) ) ;
#44 = CIRCLE ( 'NONE', #271, 3.845299461620744985 ) ;
#45 = CC_DESIGN_APPROVAL ( #240, ( #168 ) ) ;
#46 = SECURITY_CLASSIFICATION_LEVEL ( 'unclassified' ) ;
#47 = APPROVAL_DATE_TIME ( #102, #203 ) ;
#48 = CARTESIAN_POINT ( 'NONE',  ( -6.938893903907229640E-14, 0.000000000000000000, 24.00000000000000000 ) ) ;
#49 = DIRECTION ( 'NONE',  ( -3.083952846180990083E-15, 0.000000000000000000, 1.000000000000000000 ) ) ;
#50 = APPLICATION_PROTOCOL_DEFINITION ( 'international standard', 'config_control_design', 1994, #322 ) ;
#51 = ORIENTED_EDGE ( 'NONE', *, *, #39, .T. ) ;
#52 = CC_DESIGN_SECURITY_CLASSIFICATION ( #338, ( #168 ) ) ;
#53 = ORIENTED_EDGE ( 'NONE', *, *, #352, .T. ) ;
#54 = ADVANCED_FACE ( 'NONE', ( #291 ), #272, .F. ) ;
#55 = EDGE_LOOP ( 'NONE', ( #51, #1 ) ) ;
#56 = CC_DESIGN_PERSON_AND_ORGANIZATION_ASSIGNMENT ( #190, #345, ( #141 ) ) ;
#57 = CIRCLE ( 'NONE', #70, 3.845299461620744985 ) ;
#58 = LOCAL_TIME ( 8, 59, 11.00000000000000000, #20 ) ;
#59 = CARTESIAN_POINT ( 'NONE',  ( 0.000000000000000000, 0.000000000000000000, 0.000000000000000000 ) ) ;
#60 = CARTESIAN_POINT ( 'NONE',  ( 5.000000000000018652, 0.000000000000000000, 2.000000000000015543 ) ) ;
#61 = EDGE_LOOP ( 'NONE', ( #136, #329, #330, #258 ) ) ;
#62 = FACE_BOUND ( 'NONE', #210, .T. ) ;
#63 = DIRECTION ( 'NONE',  ( -0.4999999999999990008, 0.000000000000000000, -0.8660254037844392627 ) ) ;
#64 = LINE ( 'NONE', #153, #259 ) ;
#65 = CARTESIAN_POINT ( 'NONE',  ( -1.249000902703299846E-13, 0.000000000000000000, 30.00000000000000000 ) ) ;
#66 = EDGE_CURVE ( 'NONE', #200, #232, #348, .T. ) ;
#67 = CYLINDRICAL_SURFACE ( 'NONE', #8, 5.000000000000000000 ) ;
#68 = FACE_OUTER_BOUND ( 'NONE', #148, .T. ) ;
#69 = DIRECTION ( 'NONE',  ( 1.000000000000000000, 0.000000000000000000, 0.000000000000000000 ) ) ;
#70 = AXIS2_PLACEMENT_3D ( 'NONE', #73, #182, #294 ) ;
#71 = LOCAL_TIME ( 8, 59, 11.00000000000000000, #127 ) ;
#72 = CARTESIAN_POINT ( 'NONE',  ( -2.220446049250315100E-13, 0.000000000000000000, 50.00000000000000000 ) ) ;
#73 = CARTESIAN_POINT ( 'NONE',  ( 0.000000000000000000, 0.000000000000000000, 0.000000000000000000 ) ) ;
#74 = PERSON_AND_ORGANIZATION ( #207, #206 ) ;
#75 = DIRECTION ( 'NONE',  ( -3.083952846180990083E-15, 0.000000000000000000, 1.000000000000000000 ) ) ;
#76 = APPROVAL_ROLE ( '' ) ;
#77 = DIRECTION ( 'NONE',  ( 1.000000000000000000, 0.000000000000000000, -3.122502256758252770E-15 ) ) ;
#78 = AXIS2_PLACEMENT_3D ( 'NONE', #16, #129, #80 ) ;
#79 = LINE ( 'NONE', #188, #162 ) ;
#80 = DIRECTION ( 'NONE',  ( 1.000000000000000000, 0.000000000000000000, -3.122502256758252770E-15 ) ) ;
#81 = APPROVAL_STATUS ( 'not_yet_approved' ) ;
#82 = DIRECTION ( 'NONE',  ( 0.000000000000000000, 0.000000000000000000, 1.000000000000000000 ) ) ;
#83 = COORDINATED_UNIVERSAL_TIME_OFFSET ( 9, 0, .AHEAD. ) ;
#84 = ORIENTED_EDGE ( 'NONE', *, *, #66, .T. ) ;
#85 = CC_DESIGN_PERSON_AND_ORGANIZATION_ASSIGNMENT ( #252, #123, ( #168 ) ) ;
#86 = CARTESIAN_POINT ( 'NONE',  ( 0.000000000000000000, 0.000000000000000000, 2.000000000000000000 ) ) ;
#87 = ORIENTED_EDGE ( 'NONE', *, *, #226, .F. ) ;
#88 = CIRCLE ( 'NONE', #332, 5.000000000000000000 ) ;
#89 = AXIS2_PLACEMENT_3D ( 'NONE', #211, #82, #69 ) ;
#90 = EDGE_CURVE ( 'NONE', #257, #3, #194, .T. ) ;
#91 = CARTESIAN_POINT ( 'NONE',  ( -1.500000000000222045, 1.836970198721029934E-16, 50.00000000000000711 ) ) ;
#92 = DESIGN_CONTEXT ( 'detailed design', #36, 'design' ) ;
#93 = FACE_OUTER_BOUND ( 'NONE', #333, .T. ) ;
#94 = LINE ( 'NONE', #91, #304 ) ;
#95 = DIRECTION ( 'NONE',  ( 1.000000000000000000, 0.000000000000000000, -2.775557561562891351E-15 ) ) ;
#96 = APPROVAL ( #351, 'UNSPECIFIED' ) ;
#97 = DIRECTION ( 'NONE',  ( 1.000000000000000000, 0.000000000000000000, -4.625929269271485322E-15 ) ) ;
#98 = CALENDAR_DATE ( 2021, 25, 10 ) ;
#99 = ORIENTED_EDGE ( 'NONE', *, *, #285, .F. ) ;
#100 = AXIS2_PLACEMENT_3D ( 'NONE', #317, #249, #104 ) ;
#101 = DATE_AND_TIME ( #98, #71 ) ;
#102 = DATE_AND_TIME ( #319, #58 ) ;
#103 = PRODUCT ( 'bj720-10001', 'bj720-10001', '', ( #108 ) ) ;
#104 = DIRECTION ( 'NONE',  ( -1.000000000000000000, 0.000000000000000000, 2.775557561562891351E-15 ) ) ;
#105 = DATE_AND_TIME ( #154, #106 ) ;
#106 = LOCAL_TIME ( 8, 59, 11.00000000000000000, #83 ) ;
#107 = PRODUCT_DEFINITION_SHAPE ( 'NONE', 'NONE',  #141 ) ;
#108 = MECHANICAL_CONTEXT ( 'NONE', #322, 'mechanical' ) ;
#109 = FACE_OUTER_BOUND ( 'NONE', #144, .T. ) ;
#110 = ORIENTED_EDGE ( 'NONE', *, *, #174, .F. ) ;
#111 = EDGE_CURVE ( 'NONE', #306, #125, #340, .T. ) ;
#112 = ORIENTED_EDGE ( 'NONE', *, *, #18, .F. ) ;
#113 = AXIS2_PLACEMENT_3D ( 'NONE', #260, #49, #165 ) ;
#114 = ADVANCED_FACE ( 'NONE', ( #175 ), #67, .T. ) ;
#115 = CARTESIAN_POINT ( 'NONE',  ( -1.500000000000125011, 1.836970198721019580E-16, 29.99999999999999645 ) ) ;
#116 = VECTOR ( 'NONE', #289, 1000.000000000000000 ) ;
#117 = ORIENTED_EDGE ( 'NONE', *, *, #111, .T. ) ;
#118 = DIRECTION ( 'NONE',  ( -3.083952846180990083E-15, 0.000000000000000000, 1.000000000000000000 ) ) ;
#119 = CARTESIAN_POINT ( 'NONE',  ( -6.938893903907229640E-14, 0.000000000000000000, 27.00000000000000000 ) ) ;
#120 = DIRECTION ( 'NONE',  ( -3.083952846180990083E-15, 0.000000000000000000, 1.000000000000000000 ) ) ;
#121 = DIRECTION ( 'NONE',  ( -3.083952846180990083E-15, 0.000000000000000000, 1.000000000000000000 ) ) ;
#122 = FACE_OUTER_BOUND ( 'NONE', #227, .T. ) ;
#123 = PERSON_AND_ORGANIZATION_ROLE ( 'design_supplier' ) ;
#124 = ORIENTED_EDGE ( 'NONE', *, *, #301, .F. ) ;
#125 = VERTEX_POINT ( 'NONE', #33 ) ;
#126 = DIRECTION ( 'NONE',  ( 1.000000000000000000, 0.000000000000000000, -4.625929269271485322E-15 ) ) ;
#127 = COORDINATED_UNIVERSAL_TIME_OFFSET ( 9, 0, .AHEAD. ) ;
#128 = AXIS2_PLACEMENT_3D ( 'NONE', #65, #267, #235 ) ;
#129 = DIRECTION ( 'NONE',  ( -3.083952846180990083E-15, 0.000000000000000000, 1.000000000000000000 ) ) ;
#130 = SHAPE_DEFINITION_REPRESENTATION ( #107, #230 ) ;
#131 = PERSON_AND_ORGANIZATION ( #207, #206 ) ;
#132 = DIRECTION ( 'NONE',  ( -1.000000000000000000, 0.000000000000000000, 3.083952846180990083E-15 ) ) ;
#133 = ADVANCED_FACE ( 'NONE', ( #341 ), #30, .F. ) ;
#134 =( LENGTH_UNIT ( ) NAMED_UNIT ( * ) SI_UNIT ( .MILLI., .METRE. ) );
#135 = EDGE_LOOP ( 'NONE', ( #355, #216, #334, #223 ) ) ;
#136 = ORIENTED_EDGE ( 'NONE', *, *, #344, .F. ) ;
#137 = AXIS2_PLACEMENT_3D ( 'NONE', #156, #120, #314 ) ;
#138 = VERTEX_POINT ( 'NONE', #6 ) ;
#139 = AXIS2_PLACEMENT_3D ( 'NONE', #86, #292, #12 ) ;
#140 = DIRECTION ( 'NONE',  ( 3.083952846180990083E-15, 0.000000000000000000, 1.000000000000000000 ) ) ;
#141 = PRODUCT_DEFINITION ( 'UNKNOWN', '', #168, #92 ) ;
#142 = CARTESIAN_POINT ( 'NONE',  ( -1.500000000000069500, 1.836970198720985561E-16, 24.00000000000000000 ) ) ;
#143 = DIRECTION ( 'NONE',  ( 0.000000000000000000, 0.000000000000000000, 1.000000000000000000 ) ) ;
#144 = EDGE_LOOP ( 'NONE', ( #286, #177, #279, #300 ) ) ;
#145 = CIRCLE ( 'NONE', #311, 5.000000000000000000 ) ;
#146 = CARTESIAN_POINT ( 'NONE',  ( 4.999999999999777955, 0.000000000000000000, 49.99999999999998579 ) ) ;
#147 = APPROVAL_PERSON_ORGANIZATION ( #131, #240, #250 ) ;
#148 = EDGE_LOOP ( 'NONE', ( #327, #27, #2, #87 ) ) ;
#149 = EDGE_CURVE ( 'NONE', #161, #24, #44, .T. ) ;
#150 = CALENDAR_DATE ( 2021, 25, 10 ) ;
#151 = AXIS2_PLACEMENT_3D ( 'NONE', #119, #208, #313 ) ;
#152 = CARTESIAN_POINT ( 'NONE',  ( -1.249000902703299846E-13, 0.000000000000000000, 30.00000000000000000 ) ) ;
#153 = CARTESIAN_POINT ( 'NONE',  ( 1.499999999999777955, 0.000000000000000000, 49.99999999999999289 ) ) ;
#154 = CALENDAR_DATE ( 2021, 25, 10 ) ;
#155 = DIRECTION ( 'NONE',  ( 0.4999999999999990008, 0.000000000000000000, 0.8660254037844392627 ) ) ;
#156 = CARTESIAN_POINT ( 'NONE',  ( -1.249000902703299846E-13, 0.000000000000000000, 30.00000000000000000 ) ) ;
#157 = APPROVAL_STATUS ( 'not_yet_approved' ) ;
#158 = CC_DESIGN_DATE_AND_TIME_ASSIGNMENT ( #253, #183, ( #338 ) ) ;
#159 = CARTESIAN_POINT ( 'NONE',  ( -1.249000902703299846E-13, 0.000000000000000000, 30.00000000000000000 ) ) ;
#160 = VERTEX_POINT ( 'NONE', #142 ) ;
#161 = VERTEX_POINT ( 'NONE', #336 ) ;
#162 = VECTOR ( 'NONE', #224, 1000.000000000000000 ) ;
#163 = DIRECTION ( 'NONE',  ( 1.000000000000000000, 0.000000000000000000, -2.775557561562891351E-15 ) ) ;
#164 = ORIENTED_EDGE ( 'NONE', *, *, #18, .T. ) ;
#165 = DIRECTION ( 'NONE',  ( 1.000000000000000000, 0.000000000000000000, -3.122502256758252770E-15 ) ) ;
#166 = CC_DESIGN_PERSON_AND_ORGANIZATION_ASSIGNMENT ( #74, #42, ( #168 ) ) ;
#167 = DIRECTION ( 'NONE',  ( -3.083952846180990083E-15, 0.000000000000000000, 1.000000000000000000 ) ) ;
#168 = PRODUCT_DEFINITION_FORMATION_WITH_SPECIFIED_SOURCE ( 'ANY', '', #103, .NOT_KNOWN. ) ;
#169 = ADVANCED_FACE ( 'NONE', ( #241 ), #307, .T. ) ;
#170 = CARTESIAN_POINT ( 'NONE',  ( -5.000000000000069278, 0.000000000000000000, 27.00000000000001421 ) ) ;
#171 = AXIS2_PLACEMENT_3D ( 'NONE', #193, #276, #132 ) ;
#172 = CARTESIAN_POINT ( 'NONE',  ( -2.220446049250315100E-13, 0.000000000000000000, 50.00000000000000000 ) ) ;
#173 = EDGE_LOOP ( 'NONE', ( #124, #53, #10, #199 ) ) ;
#174 = EDGE_CURVE ( 'NONE', #3, #257, #13, .T. ) ;
#175 = FACE_OUTER_BOUND ( 'NONE', #282, .T. ) ;
#176 = DIRECTION ( 'NONE',  ( 1.000000000000000000, 0.000000000000000000, -3.184976339279558386E-15 ) ) ;
#177 = ORIENTED_EDGE ( 'NONE', *, *, #149, .T. ) ;
#178 = MANIFOLD_SOLID_BREP ( 'Imported1', #302 ) ;
#179 = CONICAL_SURFACE ( 'NONE', #139, 5.000000000000000000, 0.5235987755982992597 ) ;
#180 = COORDINATED_UNIVERSAL_TIME_OFFSET ( 9, 0, .AHEAD. ) ;
#181 = DIRECTION ( 'NONE',  ( -3.083952846180990083E-15, 0.000000000000000000, 1.000000000000000000 ) ) ;
#182 = DIRECTION ( 'NONE',  ( -3.083952846180990083E-15, 0.000000000000000000, 1.000000000000000000 ) ) ;
#183 = DATE_TIME_ROLE ( 'classification_date' ) ;
#184 = DIRECTION ( 'NONE',  ( -3.083952846180990083E-15, 0.000000000000000000, 1.000000000000000000 ) ) ;
#185 = DIRECTION ( 'NONE',  ( 1.000000000000000000, 0.000000000000000000, 0.000000000000000000 ) ) ;
#186 = AXIS2_PLACEMENT_3D ( 'NONE', #262, #205, #264 ) ;
#187 = CC_DESIGN_PERSON_AND_ORGANIZATION_ASSIGNMENT ( #293, #325, ( #103 ) ) ;
#188 = CARTESIAN_POINT ( 'NONE',  ( 4.999999999999930722, 6.123233995736766282E-16, 26.99999999999998579 ) ) ;
#189 = CARTESIAN_POINT ( 'NONE',  ( -6.938893903907229640E-14, 0.000000000000000000, 27.00000000000000000 ) ) ;
#190 = PERSON_AND_ORGANIZATION ( #207, #206 ) ;
#191 = CARTESIAN_POINT ( 'NONE',  ( 4.999999999999930722, 0.000000000000000000, 26.99999999999998579 ) ) ;
#192 = ORIENTED_EDGE ( 'NONE', *, *, #352, .F. ) ;
#193 = CARTESIAN_POINT ( 'NONE',  ( 3.267949192430980254, 0.000000000000000000, 30.00000000000000000 ) ) ;
#194 = CIRCLE ( 'NONE', #137, 1.500000000000000000 ) ;
#195 = CONICAL_SURFACE ( 'NONE', #151, 5.000000000000000000, 0.5235987755982992597 ) ;
#196 = ADVANCED_FACE ( 'NONE', ( #62, #204 ), #305, .F. ) ;
#197 = CIRCLE ( 'NONE', #89, 1.500000000000000000 ) ;
#198 = DIRECTION ( 'NONE',  ( 1.000000000000000000, 0.000000000000000000, -3.184976339279558386E-15 ) ) ;
#199 = ORIENTED_EDGE ( 'NONE', *, *, #111, .F. ) ;
#200 = VERTEX_POINT ( 'NONE', #60 ) ;
#201 = CONICAL_SURFACE ( 'NONE', #100, 5.000000000000000000, 0.5235987755982992597 ) ;
#202 = CC_DESIGN_APPROVAL ( #96, ( #338 ) ) ;
#203 = APPROVAL ( #81, 'UNSPECIFIED' ) ;
#204 = FACE_OUTER_BOUND ( 'NONE', #55, .T. ) ;
#205 = DIRECTION ( 'NONE',  ( 0.000000000000000000, 0.000000000000000000, 1.000000000000000000 ) ) ;
#206 = ORGANIZATION ( 'UNSPECIFIED', 'UNSPECIFIED', '' ) ;
#207 = PERSON ( 'UNSPECIFIED', 'UNSPECIFIED', 'UNSPECIFIED', ('UNSPECIFIED'), ('UNSPECIFIED'), ('UNSPECIFIED') ) ;
#208 = DIRECTION ( 'NONE',  ( 3.083952846180990083E-15, 0.000000000000000000, -1.000000000000000000 ) ) ;
#209 = CARTESIAN_POINT ( 'NONE',  ( -6.938893903907229640E-14, 0.000000000000000000, 27.00000000000000000 ) ) ;
#210 = EDGE_LOOP ( 'NONE', ( #38, #110 ) ) ;
#211 = CARTESIAN_POINT ( 'NONE',  ( -6.938893903907229640E-14, 0.000000000000000000, 24.00000000000000000 ) ) ;
#212 = CIRCLE ( 'NONE', #247, 3.267949192431115257 ) ;
#213 = EDGE_CURVE ( 'NONE', #254, #257, #64, .T. ) ;
#214 = LOCAL_TIME ( 8, 59, 11.00000000000000000, #274 ) ;
#215 = DATE_AND_TIME ( #217, #23 ) ;
#216 = ORIENTED_EDGE ( 'NONE', *, *, #243, .F. ) ;
#217 = CALENDAR_DATE ( 2021, 25, 10 ) ;
#218 = ADVANCED_FACE ( 'NONE', ( #68 ), #31, .T. ) ;
#219 = DIRECTION ( 'NONE',  ( -3.083952846180990083E-15, 0.000000000000000000, 1.000000000000000000 ) ) ;
#220 = ADVANCED_FACE ( 'NONE', ( #93 ), #309, .T. ) ;
#221 = APPLICATION_PROTOCOL_DEFINITION ( 'international standard', 'config_control_design', 1994, #36 ) ;
#222 = CARTESIAN_POINT ( 'NONE',  ( -5.000000000000000000, 6.123233995736766282E-16, 2.000000000000015543 ) ) ;
#223 = ORIENTED_EDGE ( 'NONE', *, *, #90, .T. ) ;
#224 = DIRECTION ( 'NONE',  ( 0.5000000000000016653, 6.123233995736753710E-17, -0.8660254037844377084 ) ) ;
#225 = DIRECTION ( 'NONE',  ( 0.000000000000000000, 0.000000000000000000, 1.000000000000000000 ) ) ;
#226 = EDGE_CURVE ( 'NONE', #24, #200, #349, .T. ) ;
#227 = EDGE_LOOP ( 'NONE', ( #192, #246, #117, #164 ) ) ;
#228 = ORIENTED_EDGE ( 'NONE', *, *, #310, .F. ) ;
#229 = AXIS2_PLACEMENT_3D ( 'NONE', #266, #140, #288 ) ;
#230 = ADVANCED_BREP_SHAPE_REPRESENTATION ( 'bj720-10001', ( #178, #296 ), #4 ) ;
#231 = EDGE_CURVE ( 'NONE', #161, #138, #21, .T. ) ;
#232 = VERTEX_POINT ( 'NONE', #191 ) ;
#233 = CC_DESIGN_PERSON_AND_ORGANIZATION_ASSIGNMENT ( #40, #318, ( #338 ) ) ;
#234 =( NAMED_UNIT ( * ) PLANE_ANGLE_UNIT ( ) SI_UNIT ( $, .RADIAN. ) );
#235 = DIRECTION ( 'NONE',  ( 1.000000000000000000, 0.000000000000000000, -2.312964634635742661E-15 ) ) ;
#236 = VECTOR ( 'NONE', #184, 1000.000000000000000 ) ;
#237 = CIRCLE ( 'NONE', #278, 3.267949192431115257 ) ;
#238 = DIRECTION ( 'NONE',  ( 1.000000000000000000, 0.000000000000000000, 0.000000000000000000 ) ) ;
#239 = VECTOR ( 'NONE', #63, 1000.000000000000000 ) ;
#240 = APPROVAL ( #157, 'UNSPECIFIED' ) ;
#241 = FACE_OUTER_BOUND ( 'NONE', #270, .T. ) ;
#242 = CIRCLE ( 'NONE', #78, 5.000000000000000000 ) ;
#243 = EDGE_CURVE ( 'NONE', #254, #160, #197, .T. ) ;
#244 = ADVANCED_FACE ( 'NONE', ( #109 ), #179, .T. ) ;
#245 = PERSON_AND_ORGANIZATION ( #207, #206 ) ;
#246 = ORIENTED_EDGE ( 'NONE', *, *, #39, .F. ) ;
#247 = AXIS2_PLACEMENT_3D ( 'NONE', #152, #343, #176 ) ;
#248 = DIRECTION ( 'NONE',  ( -3.083952846180990083E-15, 0.000000000000000000, 1.000000000000000000 ) ) ;
#249 = DIRECTION ( 'NONE',  ( 3.083952846180990083E-15, 0.000000000000000000, -1.000000000000000000 ) ) ;
#250 = APPROVAL_ROLE ( '' ) ;
#251 = DIRECTION ( 'NONE',  ( -3.083952846180990083E-15, 0.000000000000000000, 1.000000000000000000 ) ) ;
#252 = PERSON_AND_ORGANIZATION ( #207, #206 ) ;
#253 = DATE_AND_TIME ( #150, #214 ) ;
#254 = VERTEX_POINT ( 'NONE', #19 ) ;
#255 = ORIENTED_EDGE ( 'NONE', *, *, #280, .F. ) ;
#256 = ORIENTED_EDGE ( 'NONE', *, *, #243, .T. ) ;
#257 = VERTEX_POINT ( 'NONE', #273 ) ;
#258 = ORIENTED_EDGE ( 'NONE', *, *, #213, .F. ) ;
#259 = VECTOR ( 'NONE', #219, 1000.000000000000000 ) ;
#260 = CARTESIAN_POINT ( 'NONE',  ( 0.000000000000000000, 0.000000000000000000, 2.000000000000000000 ) ) ;
#261 = ADVANCED_FACE ( 'NONE', ( #350 ), #201, .T. ) ;
#262 = CARTESIAN_POINT ( 'NONE',  ( -6.938893903907229640E-14, 0.000000000000000000, 24.00000000000000000 ) ) ;
#263 = UNCERTAINTY_MEASURE_WITH_UNIT (LENGTH_MEASURE( 1.000000000000000082E-05 ), #134, 'distance_accuracy_value', 'NONE');
#264 = DIRECTION ( 'NONE',  ( 1.000000000000000000, 0.000000000000000000, 0.000000000000000000 ) ) ;
#265 = AXIS2_PLACEMENT_3D ( 'NONE', #189, #167, #299 ) ;
#266 = CARTESIAN_POINT ( 'NONE',  ( 0.000000000000000000, 0.000000000000000000, 0.000000000000000000 ) ) ;
#267 = DIRECTION ( 'NONE',  ( -3.083952846180990083E-15, 0.000000000000000000, 1.000000000000000000 ) ) ;
#268 = APPROVAL_PERSON_ORGANIZATION ( #295, #96, #76 ) ;
#269 = EDGE_LOOP ( 'NONE', ( #255, #5 ) ) ;
#270 = EDGE_LOOP ( 'NONE', ( #256, #26 ) ) ;
#271 = AXIS2_PLACEMENT_3D ( 'NONE', #59, #118, #7 ) ;
#272 = CYLINDRICAL_SURFACE ( 'NONE', #28, 1.500000000000000000 ) ;
#273 = CARTESIAN_POINT ( 'NONE',  ( 1.499999999999875211, 0.000000000000000000, 29.99999999999999645 ) ) ;
#274 = COORDINATED_UNIVERSAL_TIME_OFFSET ( 9, 0, .AHEAD. ) ;
#275 = DIRECTION ( 'NONE',  ( -3.083952846180990083E-15, 0.000000000000000000, 1.000000000000000000 ) ) ;
#276 = DIRECTION ( 'NONE',  ( -3.083952846180990083E-15, 0.000000000000000000, -1.000000000000000000 ) ) ;
#277 = ORIENTED_EDGE ( 'NONE', *, *, #66, .F. ) ;
#278 = AXIS2_PLACEMENT_3D ( 'NONE', #159, #281, #198 ) ;
#279 = ORIENTED_EDGE ( 'NONE', *, *, #226, .T. ) ;
#280 = EDGE_CURVE ( 'NONE', #24, #161, #57, .T. ) ;
#281 = DIRECTION ( 'NONE',  ( -3.083952846180990083E-15, 0.000000000000000000, 1.000000000000000000 ) ) ;
#282 = EDGE_LOOP ( 'NONE', ( #228, #335, #84, #112 ) ) ;
#283 = ORIENTED_EDGE ( 'NONE', *, *, #342, .T. ) ;
#284 = EDGE_CURVE ( 'NONE', #138, #200, #242, .T. ) ;
#285 = EDGE_CURVE ( 'NONE', #232, #125, #303, .T. ) ;
#286 = ORIENTED_EDGE ( 'NONE', *, *, #231, .F. ) ;
#287 = AXIS2_PLACEMENT_3D ( 'NONE', #48, #143, #238 ) ;
#288 = DIRECTION ( 'NONE',  ( 1.000000000000000000, 0.000000000000000000, -3.083952846180990083E-15 ) ) ;
#289 = DIRECTION ( 'NONE',  ( -3.083952846180990083E-15, 0.000000000000000000, 1.000000000000000000 ) ) ;
#290 = CC_DESIGN_DATE_AND_TIME_ASSIGNMENT ( #101, #9, ( #141 ) ) ;
#291 = FACE_OUTER_BOUND ( 'NONE', #135, .T. ) ;
#292 = DIRECTION ( 'NONE',  ( -3.083952846180990083E-15, 0.000000000000000000, 1.000000000000000000 ) ) ;
#293 = PERSON_AND_ORGANIZATION ( #207, #206 ) ;
#294 = DIRECTION ( 'NONE',  ( 1.000000000000000000, 0.000000000000000000, -3.083952846180990083E-15 ) ) ;
#295 = PERSON_AND_ORGANIZATION ( #207, #206 ) ;
#296 = AXIS2_PLACEMENT_3D ( 'NONE', #347, #225, #185 ) ;
#297 = CARTESIAN_POINT ( 'NONE',  ( -2.220446049250315100E-13, 0.000000000000000000, 50.00000000000000000 ) ) ;
#298 = APPROVAL_DATE_TIME ( #215, #240 ) ;
#299 = DIRECTION ( 'NONE',  ( 1.000000000000000000, 0.000000000000000000, -2.775557561562891351E-15 ) ) ;
#300 = ORIENTED_EDGE ( 'NONE', *, *, #284, .F. ) ;
#301 = EDGE_CURVE ( 'NONE', #339, #306, #237, .T. ) ;
#302 = CLOSED_SHELL ( 'NONE', ( #15, #261, #220, #218, #133, #244, #114, #25, #196, #54, #169 ) ) ;
#303 = CIRCLE ( 'NONE', #265, 5.000000000000000000 ) ;
#304 = VECTOR ( 'NONE', #275, 1000.000000000000000 ) ;
#305 = PLANE ( 'NONE',  #171 ) ;
#306 = VERTEX_POINT ( 'NONE', #308 ) ;
#307 = PLANE ( 'NONE',  #186 ) ;
#308 = CARTESIAN_POINT ( 'NONE',  ( -3.267949192431240046, 0.000000000000000000, 29.99999999999998934 ) ) ;
#309 = CYLINDRICAL_SURFACE ( 'NONE', #353, 5.000000000000000000 ) ;
#310 = EDGE_CURVE ( 'NONE', #138, #125, #34, .T. ) ;
#311 = AXIS2_PLACEMENT_3D ( 'NONE', #320, #37, #77 ) ;
#312 = EDGE_CURVE ( 'NONE', #160, #3, #94, .T. ) ;
#313 = DIRECTION ( 'NONE',  ( -1.000000000000000000, 0.000000000000000000, 2.775557561562891351E-15 ) ) ;
#314 = DIRECTION ( 'NONE',  ( 1.000000000000000000, 0.000000000000000000, -2.312964634635742661E-15 ) ) ;
#315 = CIRCLE ( 'NONE', #287, 1.500000000000000000 ) ;
#316 = CARTESIAN_POINT ( 'NONE',  ( -2.220446049250315100E-13, 0.000000000000000000, 50.00000000000000000 ) ) ;
#317 = CARTESIAN_POINT ( 'NONE',  ( -6.938893903907229640E-14, 0.000000000000000000, 27.00000000000000000 ) ) ;
#318 = PERSON_AND_ORGANIZATION_ROLE ( 'classification_officer' ) ;
#319 = CALENDAR_DATE ( 2021, 25, 10 ) ;
#320 = CARTESIAN_POINT ( 'NONE',  ( 0.000000000000000000, 0.000000000000000000, 2.000000000000000000 ) ) ;
#321 = FACE_OUTER_BOUND ( 'NONE', #61, .T. ) ;
#322 = APPLICATION_CONTEXT ( 'configuration controlled 3d designs of mechanical parts and assemblies' ) ;
#323 =( NAMED_UNIT ( * ) SI_UNIT ( $, .STERADIAN. ) SOLID_ANGLE_UNIT ( ) );
#324 = CARTESIAN_POINT ( 'NONE',  ( -5.000000000000222045, 6.123233995736766282E-16, 50.00000000000001421 ) ) ;
#325 = PERSON_AND_ORGANIZATION_ROLE ( 'design_owner' ) ;
#326 = DIRECTION ( 'NONE',  ( -0.5000000000000016653, 6.123233995736753710E-17, 0.8660254037844377084 ) ) ;
#327 = ORIENTED_EDGE ( 'NONE', *, *, #280, .T. ) ;
#328 = APPROVAL_ROLE ( '' ) ;
#329 = ORIENTED_EDGE ( 'NONE', *, *, #312, .T. ) ;
#330 = ORIENTED_EDGE ( 'NONE', *, *, #174, .T. ) ;
#331 = AXIS2_PLACEMENT_3D ( 'NONE', #72, #75, #126 ) ;
#332 = AXIS2_PLACEMENT_3D ( 'NONE', #209, #181, #95 ) ;
#333 = EDGE_LOOP ( 'NONE', ( #283, #32, #99, #277 ) ) ;
#334 = ORIENTED_EDGE ( 'NONE', *, *, #213, .T. ) ;
#335 = ORIENTED_EDGE ( 'NONE', *, *, #284, .T. ) ;
#336 = CARTESIAN_POINT ( 'NONE',  ( -3.845299461620744985, 5.416183836586818643E-16, -1.185872221908352422E-14 ) ) ;
#337 = VECTOR ( 'NONE', #326, 1000.000000000000000 ) ;
#338 = SECURITY_CLASSIFICATION ( '', '', #46 ) ;
#339 = VERTEX_POINT ( 'NONE', #354 ) ;
#340 = LINE ( 'NONE', #170, #239 ) ;
#341 = FACE_OUTER_BOUND ( 'NONE', #269, .T. ) ;
#342 = EDGE_CURVE ( 'NONE', #200, #138, #145, .T. ) ;
#343 = DIRECTION ( 'NONE',  ( -3.083952846180990083E-15, 0.000000000000000000, 1.000000000000000000 ) ) ;
#344 = EDGE_CURVE ( 'NONE', #160, #254, #315, .T. ) ;
#345 = PERSON_AND_ORGANIZATION_ROLE ( 'creator' ) ;
#346 = CYLINDRICAL_SURFACE ( 'NONE', #331, 1.500000000000000000 ) ;
#347 = CARTESIAN_POINT ( 'NONE',  ( 0.000000000000000000, 0.000000000000000000, 0.000000000000000000 ) ) ;
#348 = LINE ( 'NONE', #146, #236 ) ;
#349 = LINE ( 'NONE', #43, #29 ) ;
#350 = FACE_OUTER_BOUND ( 'NONE', #173, .T. ) ;
#351 = APPROVAL_STATUS ( 'not_yet_approved' ) ;
#352 = EDGE_CURVE ( 'NONE', #339, #232, #79, .T. ) ;
#353 = AXIS2_PLACEMENT_3D ( 'NONE', #172, #121, #22 ) ;
#354 = CARTESIAN_POINT ( 'NONE',  ( 3.267949192430990468, 5.062658757011827567E-16, 30.00000000000001066 ) ) ;
#355 = ORIENTED_EDGE ( 'NONE', *, *, #312, .F. ) ;
ENDSEC;
END-ISO-10303-21;
