ISO-10303-21;
HEADER;
FILE_DESCRIPTION (( 'STEP AP203' ),
    '1' );
FILE_NAME ('bj623-08002.STEP',
    '2021-10-24T23:57:19',
    ( '' ),
    ( '' ),
    'SwSTEP 2.0',
    'SolidWorks 2020',
    '' );
FILE_SCHEMA (( 'CONFIG_CONTROL_DESIGN' ));
ENDSEC;

DATA;
#1 = EDGE_CURVE ( 'NONE', #3, #167, #90, .T. ) ;
#2 = ORIENTED_EDGE ( 'NONE', *, *, #144, .T. ) ;
#3 = VERTEX_POINT ( 'NONE', #194 ) ;
#4 = DIRECTION ( 'NONE',  ( 0.000000000000000000, 0.000000000000000000, 1.000000000000000000 ) ) ;
#5 = AXIS2_PLACEMENT_3D ( 'NONE', #149, #128, #230 ) ;
#6 = EDGE_LOOP ( 'NONE', ( #150, #17, #213, #2 ) ) ;
#7 = CC_DESIGN_PERSON_AND_ORGANIZATION_ASSIGNMENT ( #66, #219, ( #114 ) ) ;
#8 = CARTESIAN_POINT ( 'NONE',  ( 0.000000000000000000, 0.000000000000000000, 5.000000000000000000 ) ) ;
#9 = PERSON_AND_ORGANIZATION ( #239, #132 ) ;
#10 = DATE_AND_TIME ( #64, #63 ) ;
#11 = PERSON_AND_ORGANIZATION ( #239, #132 ) ;
#12 = MANIFOLD_SOLID_BREP ( 'Imported1', #39 ) ;
#13 = DIRECTION ( 'NONE',  ( 1.000000000000000000, 0.000000000000000000, 0.000000000000000000 ) ) ;
#14 = VECTOR ( 'NONE', #58, 1000.000000000000000 ) ;
#15 = CC_DESIGN_SECURITY_CLASSIFICATION ( #222, ( #114 ) ) ;
#16 = PERSON_AND_ORGANIZATION ( #239, #132 ) ;
#17 = ORIENTED_EDGE ( 'NONE', *, *, #30, .F. ) ;
#18 = CARTESIAN_POINT ( 'NONE',  ( 0.000000000000000000, 0.000000000000000000, 5.000000000000000000 ) ) ;
#19 =( NAMED_UNIT ( * ) SI_UNIT ( $, .STERADIAN. ) SOLID_ANGLE_UNIT ( ) );
#20 = APPROVAL_PERSON_ORGANIZATION ( #224, #71, #36 ) ;
#21 = CYLINDRICAL_SURFACE ( 'NONE', #44, 4.200000000000000178 ) ;
#22 = EDGE_LOOP ( 'NONE', ( #57, #48 ) ) ;
#23 = DIRECTION ( 'NONE',  ( 0.000000000000000000, 0.000000000000000000, -1.000000000000000000 ) ) ;
#24 = ORIENTED_EDGE ( 'NONE', *, *, #236, .T. ) ;
#25 = FACE_OUTER_BOUND ( 'NONE', #80, .T. ) ;
#26 = ADVANCED_FACE ( 'NONE', ( #83 ), #62, .T. ) ;
#27 = AXIS2_PLACEMENT_3D ( 'NONE', #225, #126, #119 ) ;
#28 = CALENDAR_DATE ( 2021, 25, 10 ) ;
#29 = PERSON_AND_ORGANIZATION ( #239, #132 ) ;
#30 = EDGE_CURVE ( 'NONE', #171, #207, #199, .T. ) ;
#31 = CARTESIAN_POINT ( 'NONE',  ( 17.50000000000000000, 2.143131898507868248E-15, 0.000000000000000000 ) ) ;
#32 = CALENDAR_DATE ( 2021, 25, 10 ) ;
#33 = DIRECTION ( 'NONE',  ( 1.000000000000000000, 0.000000000000000000, 0.000000000000000000 ) ) ;
#34 = COORDINATED_UNIVERSAL_TIME_OFFSET ( 9, 0, .AHEAD. ) ;
#35 = APPROVAL ( #105, 'UNSPECIFIED' ) ;
#36 = APPROVAL_ROLE ( '' ) ;
#37 = CARTESIAN_POINT ( 'NONE',  ( -17.50000000000000000, 0.000000000000000000, 5.000000000000000000 ) ) ;
#38 = CARTESIAN_POINT ( 'NONE',  ( 17.50000000000000000, 2.143131898507868248E-15, 5.000000000000000000 ) ) ;
#39 = CLOSED_SHELL ( 'NONE', ( #77, #155, #129, #112, #26, #51 ) ) ;
#40 = PLANE ( 'NONE',  #156 ) ;
#41 = EDGE_CURVE ( 'NONE', #207, #171, #116, .T. ) ;
#42 = CARTESIAN_POINT ( 'NONE',  ( -4.200000000000000178, 0.000000000000000000, 5.000000000000000000 ) ) ;
#43 = CARTESIAN_POINT ( 'NONE',  ( 0.000000000000000000, 0.000000000000000000, 0.000000000000000000 ) ) ;
#44 = AXIS2_PLACEMENT_3D ( 'NONE', #198, #99, #176 ) ;
#45 = CIRCLE ( 'NONE', #140, 4.200000000000000178 ) ;
#46 = CC_DESIGN_DATE_AND_TIME_ASSIGNMENT ( #177, #162, ( #88 ) ) ;
#47 = LOCAL_TIME ( 8, 57, 19.00000000000000000, #226 ) ;
#48 = ORIENTED_EDGE ( 'NONE', *, *, #215, .F. ) ;
#49 = EDGE_LOOP ( 'NONE', ( #174, #235 ) ) ;
#50 = CARTESIAN_POINT ( 'NONE',  ( 0.000000000000000000, 0.000000000000000000, 5.000000000000000000 ) ) ;
#51 = ADVANCED_FACE ( 'NONE', ( #237 ), #21, .F. ) ;
#52 = SECURITY_CLASSIFICATION_LEVEL ( 'unclassified' ) ;
#53 = DESIGN_CONTEXT ( 'detailed design', #143, 'design' ) ;
#54 = LINE ( 'NONE', #185, #73 ) ;
#55 = APPROVAL_ROLE ( '' ) ;
#56 = PERSON_AND_ORGANIZATION ( #239, #132 ) ;
#57 = ORIENTED_EDGE ( 'NONE', *, *, #233, .F. ) ;
#58 = DIRECTION ( 'NONE',  ( 0.000000000000000000, 0.000000000000000000, -1.000000000000000000 ) ) ;
#59 = EDGE_LOOP ( 'NONE', ( #110, #195, #193, #232 ) ) ;
#60 = ORIENTED_EDGE ( 'NONE', *, *, #125, .T. ) ;
#61 = DIRECTION ( 'NONE',  ( -1.000000000000000000, 0.000000000000000000, 0.000000000000000000 ) ) ;
#62 = CYLINDRICAL_SURFACE ( 'NONE', #216, 17.50000000000000000 ) ;
#63 = LOCAL_TIME ( 8, 57, 19.00000000000000000, #34 ) ;
#64 = CALENDAR_DATE ( 2021, 25, 10 ) ;
#65 = APPROVAL ( #70, 'UNSPECIFIED' ) ;
#66 = PERSON_AND_ORGANIZATION ( #239, #132 ) ;
#67 = PLANE ( 'NONE',  #74 ) ;
#68 = MECHANICAL_CONTEXT ( 'NONE', #163, 'mechanical' ) ;
#69 = CARTESIAN_POINT ( 'NONE',  ( -4.200000000000000178, 0.000000000000000000, 5.000000000000000000 ) ) ;
#70 = APPROVAL_STATUS ( 'not_yet_approved' ) ;
#71 = APPROVAL ( #242, 'UNSPECIFIED' ) ;
#72 = CARTESIAN_POINT ( 'NONE',  ( 4.200000000000000178, 5.143516556418882928E-16, 5.000000000000000000 ) ) ;
#73 = VECTOR ( 'NONE', #123, 1000.000000000000000 ) ;
#74 = AXIS2_PLACEMENT_3D ( 'NONE', #18, #75, #148 ) ;
#75 = DIRECTION ( 'NONE',  ( 0.000000000000000000, 0.000000000000000000, 1.000000000000000000 ) ) ;
#76 = EDGE_LOOP ( 'NONE', ( #234, #98, #172, #94 ) ) ;
#77 = ADVANCED_FACE ( 'NONE', ( #25 ), #152, .F. ) ;
#78 = APPLICATION_PROTOCOL_DEFINITION ( 'international standard', 'config_control_design', 1994, #163 ) ;
#79 = AXIS2_PLACEMENT_3D ( 'NONE', #164, #168, #161 ) ;
#80 = EDGE_LOOP ( 'NONE', ( #113, #60, #134, #130 ) ) ;
#81 = AXIS2_PLACEMENT_3D ( 'NONE', #43, #135, #240 ) ;
#82 = CIRCLE ( 'NONE', #27, 17.50000000000000000 ) ;
#83 = FACE_OUTER_BOUND ( 'NONE', #6, .T. ) ;
#84 = DIRECTION ( 'NONE',  ( -1.000000000000000000, 0.000000000000000000, 0.000000000000000000 ) ) ;
#85 = VECTOR ( 'NONE', #92, 1000.000000000000000 ) ;
#86 = LOCAL_TIME ( 8, 57, 19.00000000000000000, #160 ) ;
#87 = COORDINATED_UNIVERSAL_TIME_OFFSET ( 9, 0, .AHEAD. ) ;
#88 = PRODUCT_DEFINITION ( 'UNKNOWN', '', #114, #53 ) ;
#89 = APPROVAL_DATE_TIME ( #10, #65 ) ;
#90 = CIRCLE ( 'NONE', #81, 4.200000000000000178 ) ;
#91 = PERSON_AND_ORGANIZATION ( #239, #132 ) ;
#92 = DIRECTION ( 'NONE',  ( 0.000000000000000000, 0.000000000000000000, -1.000000000000000000 ) ) ;
#93 = VERTEX_POINT ( 'NONE', #137 ) ;
#94 = ORIENTED_EDGE ( 'NONE', *, *, #209, .F. ) ;
#95 = PRODUCT_DEFINITION_SHAPE ( 'NONE', 'NONE',  #88 ) ;
#96 = FACE_BOUND ( 'NONE', #111, .T. ) ;
#97 = CARTESIAN_POINT ( 'NONE',  ( 0.000000000000000000, 0.000000000000000000, 5.000000000000000000 ) ) ;
#98 = ORIENTED_EDGE ( 'NONE', *, *, #120, .T. ) ;
#99 = DIRECTION ( 'NONE',  ( 0.000000000000000000, 0.000000000000000000, -1.000000000000000000 ) ) ;
#100 = FACE_OUTER_BOUND ( 'NONE', #49, .T. ) ;
#101 = DIRECTION ( 'NONE',  ( 0.000000000000000000, 0.000000000000000000, 1.000000000000000000 ) ) ;
#102 = UNCERTAINTY_MEASURE_WITH_UNIT (LENGTH_MEASURE( 1.000000000000000082E-05 ), #188, 'distance_accuracy_value', 'NONE');
#103 = CARTESIAN_POINT ( 'NONE',  ( 0.000000000000000000, 0.000000000000000000, 5.000000000000000000 ) ) ;
#104 = DATE_AND_TIME ( #32, #47 ) ;
#105 = APPROVAL_STATUS ( 'not_yet_approved' ) ;
#106 = CIRCLE ( 'NONE', #217, 4.200000000000000178 ) ;
#107 = CC_DESIGN_PERSON_AND_ORGANIZATION_ASSIGNMENT ( #56, #206, ( #136 ) ) ;
#108 = DIRECTION ( 'NONE',  ( 1.000000000000000000, 0.000000000000000000, 0.000000000000000000 ) ) ;
#109 = LOCAL_TIME ( 8, 57, 19.00000000000000000, #244 ) ;
#110 = ORIENTED_EDGE ( 'NONE', *, *, #125, .F. ) ;
#111 = EDGE_LOOP ( 'NONE', ( #24, #170 ) ) ;
#112 = ADVANCED_FACE ( 'NONE', ( #100, #96 ), #40, .F. ) ;
#113 = ORIENTED_EDGE ( 'NONE', *, *, #233, .T. ) ;
#114 = PRODUCT_DEFINITION_FORMATION_WITH_SPECIFIED_SOURCE ( 'ANY', '', #136, .NOT_KNOWN. ) ;
#115 = DIRECTION ( 'NONE',  ( 1.000000000000000000, 0.000000000000000000, 0.000000000000000000 ) ) ;
#116 = CIRCLE ( 'NONE', #204, 17.50000000000000000 ) ;
#117 = CC_DESIGN_APPROVAL ( #65, ( #114 ) ) ;
#118 = APPLICATION_PROTOCOL_DEFINITION ( 'international standard', 'config_control_design', 1994, #143 ) ;
#119 = DIRECTION ( 'NONE',  ( 1.000000000000000000, 0.000000000000000000, 0.000000000000000000 ) ) ;
#120 = EDGE_CURVE ( 'NONE', #207, #214, #54, .T. ) ;
#121 = FACE_BOUND ( 'NONE', #22, .T. ) ;
#122 = PERSON_AND_ORGANIZATION_ROLE ( 'design_supplier' ) ;
#123 = DIRECTION ( 'NONE',  ( 0.000000000000000000, 0.000000000000000000, -1.000000000000000000 ) ) ;
#124 = CARTESIAN_POINT ( 'NONE',  ( -4.200000000000000178, 0.000000000000000000, 0.000000000000000000 ) ) ;
#125 = EDGE_CURVE ( 'NONE', #153, #3, #227, .T. ) ;
#126 = DIRECTION ( 'NONE',  ( 0.000000000000000000, 0.000000000000000000, 1.000000000000000000 ) ) ;
#127 = CARTESIAN_POINT ( 'NONE',  ( 0.000000000000000000, 0.000000000000000000, 0.000000000000000000 ) ) ;
#128 = DIRECTION ( 'NONE',  ( 0.000000000000000000, 0.000000000000000000, 1.000000000000000000 ) ) ;
#129 = ADVANCED_FACE ( 'NONE', ( #245, #121 ), #67, .T. ) ;
#130 = ORIENTED_EDGE ( 'NONE', *, *, #180, .F. ) ;
#131 = EDGE_LOOP ( 'NONE', ( #154, #133 ) ) ;
#132 = ORGANIZATION ( 'UNSPECIFIED', 'UNSPECIFIED', '' ) ;
#133 = ORIENTED_EDGE ( 'NONE', *, *, #41, .T. ) ;
#134 = ORIENTED_EDGE ( 'NONE', *, *, #236, .F. ) ;
#135 = DIRECTION ( 'NONE',  ( 0.000000000000000000, 0.000000000000000000, 1.000000000000000000 ) ) ;
#136 = PRODUCT ( 'bj623-08002', 'bj623-08002', '', ( #68 ) ) ;
#137 = CARTESIAN_POINT ( 'NONE',  ( -17.50000000000000000, 0.000000000000000000, 0.000000000000000000 ) ) ;
#138 = APPROVAL_DATE_TIME ( #184, #35 ) ;
#139 = CALENDAR_DATE ( 2021, 25, 10 ) ;
#140 = AXIS2_PLACEMENT_3D ( 'NONE', #127, #210, #211 ) ;
#141 = APPROVAL_PERSON_ORGANIZATION ( #11, #65, #55 ) ;
#142 = PERSON_AND_ORGANIZATION_ROLE ( 'creator' ) ;
#143 = APPLICATION_CONTEXT ( 'configuration controlled 3d designs of mechanical parts and assemblies' ) ;
#144 = EDGE_CURVE ( 'NONE', #93, #214, #228, .T. ) ;
#145 = CARTESIAN_POINT ( 'NONE',  ( 4.200000000000000178, 5.143516556418882928E-16, 5.000000000000000000 ) ) ;
#146 = AXIS2_PLACEMENT_3D ( 'NONE', #8, #190, #84 ) ;
#147 = CIRCLE ( 'NONE', #5, 4.200000000000000178 ) ;
#148 = DIRECTION ( 'NONE',  ( 1.000000000000000000, 0.000000000000000000, 0.000000000000000000 ) ) ;
#149 = CARTESIAN_POINT ( 'NONE',  ( 0.000000000000000000, 0.000000000000000000, 5.000000000000000000 ) ) ;
#150 = ORIENTED_EDGE ( 'NONE', *, *, #120, .F. ) ;
#151 = APPROVAL_PERSON_ORGANIZATION ( #29, #35, #158 ) ;
#152 = CYLINDRICAL_SURFACE ( 'NONE', #146, 4.200000000000000178 ) ;
#153 = VERTEX_POINT ( 'NONE', #145 ) ;
#154 = ORIENTED_EDGE ( 'NONE', *, *, #30, .T. ) ;
#155 = ADVANCED_FACE ( 'NONE', ( #246 ), #183, .T. ) ;
#156 = AXIS2_PLACEMENT_3D ( 'NONE', #205, #157, #208 ) ;
#157 = DIRECTION ( 'NONE',  ( 0.000000000000000000, 0.000000000000000000, 1.000000000000000000 ) ) ;
#158 = APPROVAL_ROLE ( '' ) ;
#159 = CARTESIAN_POINT ( 'NONE',  ( -17.50000000000000000, 0.000000000000000000, 5.000000000000000000 ) ) ;
#160 = COORDINATED_UNIVERSAL_TIME_OFFSET ( 9, 0, .AHEAD. ) ;
#161 = DIRECTION ( 'NONE',  ( -1.000000000000000000, 0.000000000000000000, 0.000000000000000000 ) ) ;
#162 = DATE_TIME_ROLE ( 'creation_date' ) ;
#163 = APPLICATION_CONTEXT ( 'configuration controlled 3d designs of mechanical parts and assemblies' ) ;
#164 = CARTESIAN_POINT ( 'NONE',  ( 0.000000000000000000, 0.000000000000000000, 5.000000000000000000 ) ) ;
#165 = CC_DESIGN_DATE_AND_TIME_ASSIGNMENT ( #203, #218, ( #222 ) ) ;
#166 = CALENDAR_DATE ( 2021, 25, 10 ) ;
#167 = VERTEX_POINT ( 'NONE', #124 ) ;
#168 = DIRECTION ( 'NONE',  ( 0.000000000000000000, 0.000000000000000000, -1.000000000000000000 ) ) ;
#169 = AXIS2_PLACEMENT_3D ( 'NONE', #97, #173, #108 ) ;
#170 = ORIENTED_EDGE ( 'NONE', *, *, #1, .T. ) ;
#171 = VERTEX_POINT ( 'NONE', #37 ) ;
#172 = ORIENTED_EDGE ( 'NONE', *, *, #175, .T. ) ;
#173 = DIRECTION ( 'NONE',  ( 0.000000000000000000, 0.000000000000000000, 1.000000000000000000 ) ) ;
#174 = ORIENTED_EDGE ( 'NONE', *, *, #144, .F. ) ;
#175 = EDGE_CURVE ( 'NONE', #214, #93, #82, .T. ) ;
#176 = DIRECTION ( 'NONE',  ( -1.000000000000000000, 0.000000000000000000, 0.000000000000000000 ) ) ;
#177 = DATE_AND_TIME ( #139, #109 ) ;
#178 =( GEOMETRIC_REPRESENTATION_CONTEXT ( 3 ) GLOBAL_UNCERTAINTY_ASSIGNED_CONTEXT ( ( #102 ) ) GLOBAL_UNIT_ASSIGNED_CONTEXT ( ( #188, #187, #19 ) ) REPRESENTATION_CONTEXT ( 'NONE', 'WORKASPACE' ) );
#179 = CARTESIAN_POINT ( 'NONE',  ( 0.000000000000000000, 0.000000000000000000, 0.000000000000000000 ) ) ;
#180 = EDGE_CURVE ( 'NONE', #249, #167, #220, .T. ) ;
#181 = APPROVAL_DATE_TIME ( #104, #71 ) ;
#182 = DIRECTION ( 'NONE',  ( 0.000000000000000000, 0.000000000000000000, 1.000000000000000000 ) ) ;
#183 = CYLINDRICAL_SURFACE ( 'NONE', #79, 17.50000000000000000 ) ;
#184 = DATE_AND_TIME ( #28, #196 ) ;
#185 = CARTESIAN_POINT ( 'NONE',  ( 17.50000000000000000, 2.143131898507868248E-15, 5.000000000000000000 ) ) ;
#186 = CC_DESIGN_PERSON_AND_ORGANIZATION_ASSIGNMENT ( #91, #142, ( #88 ) ) ;
#187 =( NAMED_UNIT ( * ) PLANE_ANGLE_UNIT ( ) SI_UNIT ( $, .RADIAN. ) );
#188 =( LENGTH_UNIT ( ) NAMED_UNIT ( * ) SI_UNIT ( .MILLI., .METRE. ) );
#189 = CC_DESIGN_PERSON_AND_ORGANIZATION_ASSIGNMENT ( #16, #122, ( #114 ) ) ;
#190 = DIRECTION ( 'NONE',  ( 0.000000000000000000, 0.000000000000000000, -1.000000000000000000 ) ) ;
#191 = CC_DESIGN_APPROVAL ( #71, ( #88 ) ) ;
#192 = AXIS2_PLACEMENT_3D ( 'NONE', #179, #101, #13 ) ;
#193 = ORIENTED_EDGE ( 'NONE', *, *, #180, .T. ) ;
#194 = CARTESIAN_POINT ( 'NONE',  ( 4.200000000000000178, 5.143516556418882928E-16, 0.000000000000000000 ) ) ;
#195 = ORIENTED_EDGE ( 'NONE', *, *, #215, .T. ) ;
#196 = LOCAL_TIME ( 8, 57, 19.00000000000000000, #87 ) ;
#197 = ADVANCED_BREP_SHAPE_REPRESENTATION ( 'bj623-08002', ( #12, #192 ), #178 ) ;
#198 = CARTESIAN_POINT ( 'NONE',  ( 0.000000000000000000, 0.000000000000000000, 5.000000000000000000 ) ) ;
#199 = CIRCLE ( 'NONE', #169, 17.50000000000000000 ) ;
#200 = PERSON_AND_ORGANIZATION_ROLE ( 'classification_officer' ) ;
#201 = DIRECTION ( 'NONE',  ( 0.000000000000000000, 0.000000000000000000, -1.000000000000000000 ) ) ;
#202 = CARTESIAN_POINT ( 'NONE',  ( 0.000000000000000000, 0.000000000000000000, 0.000000000000000000 ) ) ;
#203 = DATE_AND_TIME ( #166, #86 ) ;
#204 = AXIS2_PLACEMENT_3D ( 'NONE', #50, #4, #115 ) ;
#205 = CARTESIAN_POINT ( 'NONE',  ( 0.000000000000000000, 0.000000000000000000, 0.000000000000000000 ) ) ;
#206 = PERSON_AND_ORGANIZATION_ROLE ( 'design_owner' ) ;
#207 = VERTEX_POINT ( 'NONE', #38 ) ;
#208 = DIRECTION ( 'NONE',  ( 1.000000000000000000, 0.000000000000000000, 0.000000000000000000 ) ) ;
#209 = EDGE_CURVE ( 'NONE', #171, #93, #223, .T. ) ;
#210 = DIRECTION ( 'NONE',  ( 0.000000000000000000, 0.000000000000000000, 1.000000000000000000 ) ) ;
#211 = DIRECTION ( 'NONE',  ( 1.000000000000000000, 0.000000000000000000, 0.000000000000000000 ) ) ;
#212 = CC_DESIGN_PERSON_AND_ORGANIZATION_ASSIGNMENT ( #9, #200, ( #222 ) ) ;
#213 = ORIENTED_EDGE ( 'NONE', *, *, #209, .T. ) ;
#214 = VERTEX_POINT ( 'NONE', #31 ) ;
#215 = EDGE_CURVE ( 'NONE', #153, #249, #106, .T. ) ;
#216 = AXIS2_PLACEMENT_3D ( 'NONE', #238, #23, #61 ) ;
#217 = AXIS2_PLACEMENT_3D ( 'NONE', #103, #182, #231 ) ;
#218 = DATE_TIME_ROLE ( 'classification_date' ) ;
#219 = PERSON_AND_ORGANIZATION_ROLE ( 'creator' ) ;
#220 = LINE ( 'NONE', #69, #14 ) ;
#221 = VECTOR ( 'NONE', #201, 1000.000000000000000 ) ;
#222 = SECURITY_CLASSIFICATION ( '', '', #52 ) ;
#223 = LINE ( 'NONE', #159, #221 ) ;
#224 = PERSON_AND_ORGANIZATION ( #239, #132 ) ;
#225 = CARTESIAN_POINT ( 'NONE',  ( 0.000000000000000000, 0.000000000000000000, 0.000000000000000000 ) ) ;
#226 = COORDINATED_UNIVERSAL_TIME_OFFSET ( 9, 0, .AHEAD. ) ;
#227 = LINE ( 'NONE', #72, #85 ) ;
#228 = CIRCLE ( 'NONE', #247, 17.50000000000000000 ) ;
#229 = DIRECTION ( 'NONE',  ( 0.000000000000000000, 0.000000000000000000, 1.000000000000000000 ) ) ;
#230 = DIRECTION ( 'NONE',  ( 1.000000000000000000, 0.000000000000000000, 0.000000000000000000 ) ) ;
#231 = DIRECTION ( 'NONE',  ( 1.000000000000000000, 0.000000000000000000, 0.000000000000000000 ) ) ;
#232 = ORIENTED_EDGE ( 'NONE', *, *, #1, .F. ) ;
#233 = EDGE_CURVE ( 'NONE', #249, #153, #147, .T. ) ;
#234 = ORIENTED_EDGE ( 'NONE', *, *, #41, .F. ) ;
#235 = ORIENTED_EDGE ( 'NONE', *, *, #175, .F. ) ;
#236 = EDGE_CURVE ( 'NONE', #167, #3, #45, .T. ) ;
#237 = FACE_OUTER_BOUND ( 'NONE', #59, .T. ) ;
#238 = CARTESIAN_POINT ( 'NONE',  ( 0.000000000000000000, 0.000000000000000000, 5.000000000000000000 ) ) ;
#239 = PERSON ( 'UNSPECIFIED', 'UNSPECIFIED', 'UNSPECIFIED', ('UNSPECIFIED'), ('UNSPECIFIED'), ('UNSPECIFIED') ) ;
#240 = DIRECTION ( 'NONE',  ( 1.000000000000000000, 0.000000000000000000, 0.000000000000000000 ) ) ;
#241 = PRODUCT_RELATED_PRODUCT_CATEGORY ( 'detail', '', ( #136 ) ) ;
#242 = APPROVAL_STATUS ( 'not_yet_approved' ) ;
#243 = SHAPE_DEFINITION_REPRESENTATION ( #95, #197 ) ;
#244 = COORDINATED_UNIVERSAL_TIME_OFFSET ( 9, 0, .AHEAD. ) ;
#245 = FACE_OUTER_BOUND ( 'NONE', #131, .T. ) ;
#246 = FACE_OUTER_BOUND ( 'NONE', #76, .T. ) ;
#247 = AXIS2_PLACEMENT_3D ( 'NONE', #202, #229, #33 ) ;
#248 = CC_DESIGN_APPROVAL ( #35, ( #222 ) ) ;
#249 = VERTEX_POINT ( 'NONE', #42 ) ;
ENDSEC;
END-ISO-10303-21;
