ISO-10303-21;
HEADER;
FILE_DESCRIPTION (( 'STEP AP203' ),
    '1' );
FILE_NAME ('bj401-06002.STEP',
    '2021-10-24T23:52:27',
    ( '' ),
    ( '' ),
    'SwSTEP 2.0',
    'SolidWorks 2020',
    '' );
FILE_SCHEMA (( 'CONFIG_CONTROL_DESIGN' ));
ENDSEC;

DATA;
#1 = ORIENTED_EDGE ( 'NONE', *, *, #178, .T. ) ;
#2 = PERSON_AND_ORGANIZATION_ROLE ( 'creator' ) ;
#3 = CARTESIAN_POINT ( 'NONE',  ( 0.000000000000000000, 0.000000000000000000, 18.00000000000000000 ) ) ;
#4 = DIRECTION ( 'NONE',  ( 0.000000000000000000, 0.000000000000000000, 1.000000000000000000 ) ) ;
#5 = VERTEX_POINT ( 'NONE', #8 ) ;
#6 = ORIENTED_EDGE ( 'NONE', *, *, #280, .T. ) ;
#7 = CIRCLE ( 'NONE', #395, 7.500000000000000000 ) ;
#8 = CARTESIAN_POINT ( 'NONE',  ( -3.299999999999999822, 4.041334437186265510E-16, 18.00000000000000000 ) ) ;
#9 = CC_DESIGN_APPROVAL ( #174, ( #248 ) ) ;
#10 = CARTESIAN_POINT ( 'NONE',  ( -7.500000000000000000, 9.184850993605147944E-16, -10.00000000000000000 ) ) ;
#11 = FACE_OUTER_BOUND ( 'NONE', #194, .T. ) ;
#12 = FACE_OUTER_BOUND ( 'NONE', #337, .T. ) ;
#13 = EDGE_CURVE ( 'NONE', #342, #5, #320, .T. ) ;
#14 = CARTESIAN_POINT ( 'NONE',  ( 0.000000000000000000, 0.000000000000000000, 25.00000000000000000 ) ) ;
#15 = DIRECTION ( 'NONE',  ( 0.000000000000000000, 0.000000000000000000, 1.000000000000000000 ) ) ;
#16 = CIRCLE ( 'NONE', #189, 7.500000000000000000 ) ;
#17 = CARTESIAN_POINT ( 'NONE',  ( 0.000000000000000000, 0.000000000000000000, 20.00000000000000000 ) ) ;
#18 = FACE_BOUND ( 'NONE', #251, .T. ) ;
#19 = DIRECTION ( 'NONE',  ( 0.000000000000000000, 0.000000000000000000, -1.000000000000000000 ) ) ;
#20 = SHAPE_DEFINITION_REPRESENTATION ( #198, #343 ) ;
#21 = CARTESIAN_POINT ( 'NONE',  ( -5.500000000000000000, 6.735557395310442023E-16, 25.00000000000000000 ) ) ;
#22 = DIRECTION ( 'NONE',  ( 1.000000000000000000, 0.000000000000000000, 0.000000000000000000 ) ) ;
#23 = DIRECTION ( 'NONE',  ( 0.000000000000000000, 0.000000000000000000, 1.000000000000000000 ) ) ;
#24 = VERTEX_POINT ( 'NONE', #172 ) ;
#25 = AXIS2_PLACEMENT_3D ( 'NONE', #215, #246, #323 ) ;
#26 = DIRECTION ( 'NONE',  ( 0.000000000000000000, 0.000000000000000000, 1.000000000000000000 ) ) ;
#27 = ORIENTED_EDGE ( 'NONE', *, *, #344, .T. ) ;
#28 = MECHANICAL_CONTEXT ( 'NONE', #329, 'mechanical' ) ;
#29 = DIRECTION ( 'NONE',  ( 1.000000000000000000, 0.000000000000000000, 0.000000000000000000 ) ) ;
#30 = ORIENTED_EDGE ( 'NONE', *, *, #158, .F. ) ;
#31 = ORIENTED_EDGE ( 'NONE', *, *, #223, .F. ) ;
#32 = PERSON_AND_ORGANIZATION ( #89, #357 ) ;
#33 = ADVANCED_FACE ( 'NONE', ( #103 ), #141, .F. ) ;
#34 = CARTESIAN_POINT ( 'NONE',  ( 0.000000000000000000, 0.000000000000000000, 25.00000000000000000 ) ) ;
#35 = EDGE_LOOP ( 'NONE', ( #409, #37, #312, #235 ) ) ;
#36 = VECTOR ( 'NONE', #256, 1000.000000000000000 ) ;
#37 = ORIENTED_EDGE ( 'NONE', *, *, #170, .T. ) ;
#38 = DIRECTION ( 'NONE',  ( 0.000000000000000000, 0.000000000000000000, 1.000000000000000000 ) ) ;
#39 = CC_DESIGN_PERSON_AND_ORGANIZATION_ASSIGNMENT ( #291, #208, ( #387 ) ) ;
#40 = ORIENTED_EDGE ( 'NONE', *, *, #306, .T. ) ;
#41 = CARTESIAN_POINT ( 'NONE',  ( 3.299999999999999822, 0.000000000000000000, 20.00000000000000000 ) ) ;
#42 = AXIS2_PLACEMENT_3D ( 'NONE', #353, #75, #205 ) ;
#43 = CARTESIAN_POINT ( 'NONE',  ( 0.000000000000000000, 0.000000000000000000, -10.00000000000000000 ) ) ;
#44 = DIRECTION ( 'NONE',  ( 0.000000000000000000, 0.000000000000000000, 1.000000000000000000 ) ) ;
#45 = EDGE_CURVE ( 'NONE', #379, #201, #182, .T. ) ;
#46 = CARTESIAN_POINT ( 'NONE',  ( -7.500000000000000000, 9.184850993605147944E-16, 0.000000000000000000 ) ) ;
#47 = COORDINATED_UNIVERSAL_TIME_OFFSET ( 9, 0, .AHEAD. ) ;
#48 = CARTESIAN_POINT ( 'NONE',  ( 0.000000000000000000, 0.000000000000000000, 20.00000000000000000 ) ) ;
#49 = CARTESIAN_POINT ( 'NONE',  ( 0.000000000000000000, 0.000000000000000000, 20.00000000000000000 ) ) ;
#50 = DIRECTION ( 'NONE',  ( 0.000000000000000000, 0.000000000000000000, 1.000000000000000000 ) ) ;
#51 = AXIS2_PLACEMENT_3D ( 'NONE', #374, #26, #29 ) ;
#52 = CARTESIAN_POINT ( 'NONE',  ( 5.500000000000000000, 0.000000000000000000, 20.00000000000000000 ) ) ;
#53 = DIRECTION ( 'NONE',  ( 1.000000000000000000, 0.000000000000000000, 0.000000000000000000 ) ) ;
#54 = ORIENTED_EDGE ( 'NONE', *, *, #45, .T. ) ;
#55 =( NAMED_UNIT ( * ) SI_UNIT ( $, .STERADIAN. ) SOLID_ANGLE_UNIT ( ) );
#56 = EDGE_LOOP ( 'NONE', ( #316, #345 ) ) ;
#57 = AXIS2_PLACEMENT_3D ( 'NONE', #17, #175, #154 ) ;
#58 = DIRECTION ( 'NONE',  ( 0.000000000000000000, 0.000000000000000000, 1.000000000000000000 ) ) ;
#59 = VERTEX_POINT ( 'NONE', #46 ) ;
#60 = PERSON_AND_ORGANIZATION_ROLE ( 'design_owner' ) ;
#61 = CARTESIAN_POINT ( 'NONE',  ( 0.000000000000000000, 0.000000000000000000, -10.00000000000000000 ) ) ;
#62 = MANIFOLD_SOLID_BREP ( 'Imported1', #275 ) ;
#63 = EDGE_LOOP ( 'NONE', ( #372, #30 ) ) ;
#64 = DIRECTION ( 'NONE',  ( 0.000000000000000000, 0.000000000000000000, 1.000000000000000000 ) ) ;
#65 = ADVANCED_FACE ( 'NONE', ( #242, #301 ), #176, .F. ) ;
#66 = DATE_AND_TIME ( #230, #68 ) ;
#67 = CIRCLE ( 'NONE', #296, 5.500000000000000000 ) ;
#68 = LOCAL_TIME ( 8, 52, 27.00000000000000000, #101 ) ;
#69 = ORIENTED_EDGE ( 'NONE', *, *, #269, .T. ) ;
#70 = CC_DESIGN_PERSON_AND_ORGANIZATION_ASSIGNMENT ( #32, #2, ( #348 ) ) ;
#71 = LINE ( 'NONE', #289, #104 ) ;
#72 = VERTEX_POINT ( 'NONE', #334 ) ;
#73 = CIRCLE ( 'NONE', #231, 7.500000000000000000 ) ;
#74 = EDGE_LOOP ( 'NONE', ( #193, #95 ) ) ;
#75 = DIRECTION ( 'NONE',  ( 0.000000000000000000, 0.000000000000000000, 1.000000000000000000 ) ) ;
#76 = ORIENTED_EDGE ( 'NONE', *, *, #388, .F. ) ;
#77 = EDGE_CURVE ( 'NONE', #130, #319, #375, .T. ) ;
#78 = DIRECTION ( 'NONE',  ( 1.000000000000000000, 0.000000000000000000, 0.000000000000000000 ) ) ;
#79 = CIRCLE ( 'NONE', #51, 3.299999999999999822 ) ;
#80 = DIRECTION ( 'NONE',  ( 1.000000000000000000, 0.000000000000000000, 0.000000000000000000 ) ) ;
#81 = LOCAL_TIME ( 8, 52, 27.00000000000000000, #368 ) ;
#82 = APPROVAL_STATUS ( 'not_yet_approved' ) ;
#83 = DIRECTION ( 'NONE',  ( 1.000000000000000000, 0.000000000000000000, 0.000000000000000000 ) ) ;
#84 = CYLINDRICAL_SURFACE ( 'NONE', #125, 10.00000000000000000 ) ;
#85 = PERSON_AND_ORGANIZATION ( #89, #357 ) ;
#86 = DIRECTION ( 'NONE',  ( 0.000000000000000000, 0.000000000000000000, 1.000000000000000000 ) ) ;
#87 = ORIENTED_EDGE ( 'NONE', *, *, #190, .T. ) ;
#88 = APPLICATION_PROTOCOL_DEFINITION ( 'international standard', 'config_control_design', 1994, #329 ) ;
#89 = PERSON ( 'UNSPECIFIED', 'UNSPECIFIED', 'UNSPECIFIED', ('UNSPECIFIED'), ('UNSPECIFIED'), ('UNSPECIFIED') ) ;
#90 = DIRECTION ( 'NONE',  ( 0.000000000000000000, 0.000000000000000000, 1.000000000000000000 ) ) ;
#91 = EDGE_LOOP ( 'NONE', ( #191, #105, #27, #76 ) ) ;
#92 = EDGE_CURVE ( 'NONE', #227, #389, #73, .T. ) ;
#93 = APPROVAL_STATUS ( 'not_yet_approved' ) ;
#94 = ADVANCED_FACE ( 'NONE', ( #150 ), #324, .F. ) ;
#95 = ORIENTED_EDGE ( 'NONE', *, *, #107, .T. ) ;
#96 = APPROVAL_DATE_TIME ( #195, #174 ) ;
#97 = CIRCLE ( 'NONE', #25, 5.500000000000000000 ) ;
#98 = VERTEX_POINT ( 'NONE', #366 ) ;
#99 = DIRECTION ( 'NONE',  ( 1.000000000000000000, 0.000000000000000000, 0.000000000000000000 ) ) ;
#100 = CYLINDRICAL_SURFACE ( 'NONE', #273, 7.500000000000000000 ) ;
#101 = COORDINATED_UNIVERSAL_TIME_OFFSET ( 9, 0, .AHEAD. ) ;
#102 = PRODUCT_RELATED_PRODUCT_CATEGORY ( 'detail', '', ( #313 ) ) ;
#103 = FACE_OUTER_BOUND ( 'NONE', #91, .T. ) ;
#104 = VECTOR ( 'NONE', #318, 1000.000000000000000 ) ;
#105 = ORIENTED_EDGE ( 'NONE', *, *, #223, .T. ) ;
#106 = SECURITY_CLASSIFICATION_LEVEL ( 'unclassified' ) ;
#107 = EDGE_CURVE ( 'NONE', #59, #72, #354, .T. ) ;
#108 = ORIENTED_EDGE ( 'NONE', *, *, #92, .F. ) ;
#109 = CC_DESIGN_PERSON_AND_ORGANIZATION_ASSIGNMENT ( #310, #165, ( #248 ) ) ;
#110 = ORIENTED_EDGE ( 'NONE', *, *, #327, .T. ) ;
#111 = AXIS2_PLACEMENT_3D ( 'NONE', #297, #15, #213 ) ;
#112 = ADVANCED_FACE ( 'NONE', ( #11 ), #298, .T. ) ;
#113 = DIRECTION ( 'NONE',  ( 0.000000000000000000, 0.000000000000000000, 1.000000000000000000 ) ) ;
#114 = CARTESIAN_POINT ( 'NONE',  ( -5.500000000000000000, 6.735557395310442023E-16, 18.00000000000000000 ) ) ;
#115 = VECTOR ( 'NONE', #218, 1000.000000000000000 ) ;
#116 = APPROVAL_PERSON_ORGANIZATION ( #408, #122, #384 ) ;
#117 = CARTESIAN_POINT ( 'NONE',  ( 0.000000000000000000, 0.000000000000000000, 20.00000000000000000 ) ) ;
#118 = ADVANCED_FACE ( 'NONE', ( #358, #274 ), #152, .F. ) ;
#119 = DIRECTION ( 'NONE',  ( 0.000000000000000000, 0.000000000000000000, 1.000000000000000000 ) ) ;
#120 = CALENDAR_DATE ( 2021, 25, 10 ) ;
#121 = CARTESIAN_POINT ( 'NONE',  ( -10.00000000000000000, 1.224646799147353256E-15, 0.000000000000000000 ) ) ;
#122 = APPROVAL ( #258, 'UNSPECIFIED' ) ;
#123 = DIRECTION ( 'NONE',  ( 0.000000000000000000, 0.000000000000000000, 1.000000000000000000 ) ) ;
#124 = CARTESIAN_POINT ( 'NONE',  ( -3.299999999999999822, 4.041334437186265510E-16, 20.00000000000000000 ) ) ;
#125 = AXIS2_PLACEMENT_3D ( 'NONE', #216, #90, #135 ) ;
#126 = DIRECTION ( 'NONE',  ( 1.000000000000000000, 0.000000000000000000, 0.000000000000000000 ) ) ;
#127 = DIRECTION ( 'NONE',  ( 0.000000000000000000, 0.000000000000000000, 1.000000000000000000 ) ) ;
#128 = ORIENTED_EDGE ( 'NONE', *, *, #158, .T. ) ;
#129 = DIRECTION ( 'NONE',  ( 0.000000000000000000, 0.000000000000000000, 1.000000000000000000 ) ) ;
#130 = VERTEX_POINT ( 'NONE', #155 ) ;
#131 = ORIENTED_EDGE ( 'NONE', *, *, #260, .F. ) ;
#132 = AXIS2_PLACEMENT_3D ( 'NONE', #272, #212, #83 ) ;
#133 = LOCAL_TIME ( 8, 52, 27.00000000000000000, #286 ) ;
#134 = ADVANCED_FACE ( 'NONE', ( #398 ), #84, .T. ) ;
#135 = DIRECTION ( 'NONE',  ( 1.000000000000000000, 0.000000000000000000, 0.000000000000000000 ) ) ;
#136 = VERTEX_POINT ( 'NONE', #249 ) ;
#137 = DESIGN_CONTEXT ( 'detailed design', #288, 'design' ) ;
#138 = CALENDAR_DATE ( 2021, 25, 10 ) ;
#139 = ORIENTED_EDGE ( 'NONE', *, *, #107, .F. ) ;
#140 = PERSON_AND_ORGANIZATION ( #89, #357 ) ;
#141 = CYLINDRICAL_SURFACE ( 'NONE', #359, 5.500000000000000000 ) ;
#142 = EDGE_CURVE ( 'NONE', #319, #5, #400, .T. ) ;
#143 = DIRECTION ( 'NONE',  ( 1.000000000000000000, 0.000000000000000000, 0.000000000000000000 ) ) ;
#144 = FACE_OUTER_BOUND ( 'NONE', #287, .T. ) ;
#145 = ORIENTED_EDGE ( 'NONE', *, *, #92, .T. ) ;
#146 = CARTESIAN_POINT ( 'NONE',  ( 0.000000000000000000, 0.000000000000000000, 18.00000000000000000 ) ) ;
#147 = ORIENTED_EDGE ( 'NONE', *, *, #159, .T. ) ;
#148 = CARTESIAN_POINT ( 'NONE',  ( 10.00000000000000000, 0.000000000000000000, 20.00000000000000000 ) ) ;
#149 = FACE_OUTER_BOUND ( 'NONE', #35, .T. ) ;
#150 = FACE_OUTER_BOUND ( 'NONE', #238, .T. ) ;
#151 = DIRECTION ( 'NONE',  ( 1.000000000000000000, 0.000000000000000000, 0.000000000000000000 ) ) ;
#152 = PLANE ( 'NONE',  #378 ) ;
#153 = CC_DESIGN_APPROVAL ( #122, ( #348 ) ) ;
#154 = DIRECTION ( 'NONE',  ( 1.000000000000000000, 0.000000000000000000, 0.000000000000000000 ) ) ;
#155 = CARTESIAN_POINT ( 'NONE',  ( 3.299999999999999822, 0.000000000000000000, -10.00000000000000000 ) ) ;
#156 = FACE_OUTER_BOUND ( 'NONE', #204, .T. ) ;
#157 = DIRECTION ( 'NONE',  ( 1.000000000000000000, 0.000000000000000000, 0.000000000000000000 ) ) ;
#158 = EDGE_CURVE ( 'NONE', #5, #342, #79, .T. ) ;
#159 = EDGE_CURVE ( 'NONE', #389, #72, #161, .T. ) ;
#160 = CIRCLE ( 'NONE', #132, 10.00000000000000000 ) ;
#161 = LINE ( 'NONE', #282, #340 ) ;
#162 = ORIENTED_EDGE ( 'NONE', *, *, #77, .F. ) ;
#163 = APPROVAL_ROLE ( '' ) ;
#164 = CARTESIAN_POINT ( 'NONE',  ( 0.000000000000000000, 0.000000000000000000, 18.00000000000000000 ) ) ;
#165 = PERSON_AND_ORGANIZATION_ROLE ( 'creator' ) ;
#166 = AXIS2_PLACEMENT_3D ( 'NONE', #49, #44, #299 ) ;
#167 = ORIENTED_EDGE ( 'NONE', *, *, #13, .T. ) ;
#168 = ORIENTED_EDGE ( 'NONE', *, *, #327, .F. ) ;
#169 = CARTESIAN_POINT ( 'NONE',  ( 0.000000000000000000, 0.000000000000000000, -10.00000000000000000 ) ) ;
#170 = EDGE_CURVE ( 'NONE', #379, #98, #233, .T. ) ;
#171 = ORIENTED_EDGE ( 'NONE', *, *, #170, .F. ) ;
#172 = CARTESIAN_POINT ( 'NONE',  ( 10.00000000000000000, 0.000000000000000000, 25.00000000000000000 ) ) ;
#173 = AXIS2_PLACEMENT_3D ( 'NONE', #394, #119, #363 ) ;
#174 = APPROVAL ( #93, 'UNSPECIFIED' ) ;
#175 = DIRECTION ( 'NONE',  ( 0.000000000000000000, 0.000000000000000000, 1.000000000000000000 ) ) ;
#176 = PLANE ( 'NONE',  #180 ) ;
#177 = CARTESIAN_POINT ( 'NONE',  ( -3.299999999999999822, 4.041334437186265510E-16, -10.00000000000000000 ) ) ;
#178 = EDGE_CURVE ( 'NONE', #389, #227, #7, .T. ) ;
#179 = DIRECTION ( 'NONE',  ( 1.000000000000000000, 0.000000000000000000, 0.000000000000000000 ) ) ;
#180 = AXIS2_PLACEMENT_3D ( 'NONE', #321, #360, #206 ) ;
#181 = CYLINDRICAL_SURFACE ( 'NONE', #57, 10.00000000000000000 ) ;
#182 = LINE ( 'NONE', #270, #252 ) ;
#183 = LOCAL_TIME ( 8, 52, 27.00000000000000000, #47 ) ;
#184 = CARTESIAN_POINT ( 'NONE',  ( 7.500000000000000000, 0.000000000000000000, -10.00000000000000000 ) ) ;
#185 = CYLINDRICAL_SURFACE ( 'NONE', #254, 3.299999999999999822 ) ;
#186 = EDGE_CURVE ( 'NONE', #264, #136, #247, .T. ) ;
#187 = ORIENTED_EDGE ( 'NONE', *, *, #350, .F. ) ;
#188 = CC_DESIGN_PERSON_AND_ORGANIZATION_ASSIGNMENT ( #140, #262, ( #348 ) ) ;
#189 = AXIS2_PLACEMENT_3D ( 'NONE', #396, #361, #157 ) ;
#190 = EDGE_CURVE ( 'NONE', #227, #59, #407, .T. ) ;
#191 = ORIENTED_EDGE ( 'NONE', *, *, #186, .F. ) ;
#192 = COORDINATED_UNIVERSAL_TIME_OFFSET ( 9, 0, .AHEAD. ) ;
#193 = ORIENTED_EDGE ( 'NONE', *, *, #350, .T. ) ;
#194 = EDGE_LOOP ( 'NONE', ( #1, #87, #187, #317 ) ) ;
#195 = DATE_AND_TIME ( #406, #225 ) ;
#196 = APPROVAL_PERSON_ORGANIZATION ( #279, #174, #163 ) ;
#197 = ADVANCED_FACE ( 'NONE', ( #382 ), #100, .T. ) ;
#198 = PRODUCT_DEFINITION_SHAPE ( 'NONE', 'NONE',  #248 ) ;
#199 = DIRECTION ( 'NONE',  ( 1.000000000000000000, 0.000000000000000000, 0.000000000000000000 ) ) ;
#200 = ORIENTED_EDGE ( 'NONE', *, *, #236, .F. ) ;
#201 = VERTEX_POINT ( 'NONE', #336 ) ;
#202 = VECTOR ( 'NONE', #203, 1000.000000000000000 ) ;
#203 = DIRECTION ( 'NONE',  ( 0.000000000000000000, 0.000000000000000000, 1.000000000000000000 ) ) ;
#204 = EDGE_LOOP ( 'NONE', ( #168, #171 ) ) ;
#205 = DIRECTION ( 'NONE',  ( 1.000000000000000000, 0.000000000000000000, 0.000000000000000000 ) ) ;
#206 = DIRECTION ( 'NONE',  ( -1.000000000000000000, 0.000000000000000000, 0.000000000000000000 ) ) ;
#207 =( LENGTH_UNIT ( ) NAMED_UNIT ( * ) SI_UNIT ( .MILLI., .METRE. ) );
#208 = PERSON_AND_ORGANIZATION_ROLE ( 'classification_officer' ) ;
#209 = ADVANCED_FACE ( 'NONE', ( #144, #18 ), #226, .F. ) ;
#210 = DIRECTION ( 'NONE',  ( 1.000000000000000000, 0.000000000000000000, 0.000000000000000000 ) ) ;
#211 = DATE_AND_TIME ( #120, #183 ) ;
#212 = DIRECTION ( 'NONE',  ( 0.000000000000000000, 0.000000000000000000, 1.000000000000000000 ) ) ;
#213 = DIRECTION ( 'NONE',  ( 1.000000000000000000, 0.000000000000000000, 0.000000000000000000 ) ) ;
#214 = CALENDAR_DATE ( 2021, 25, 10 ) ;
#215 = CARTESIAN_POINT ( 'NONE',  ( 0.000000000000000000, 0.000000000000000000, 25.00000000000000000 ) ) ;
#216 = CARTESIAN_POINT ( 'NONE',  ( 0.000000000000000000, 0.000000000000000000, 20.00000000000000000 ) ) ;
#217 = APPROVAL_PERSON_ORGANIZATION ( #85, #234, #302 ) ;
#218 = DIRECTION ( 'NONE',  ( 0.000000000000000000, 0.000000000000000000, 1.000000000000000000 ) ) ;
#219 = EDGE_LOOP ( 'NONE', ( #110, #54, #253, #131 ) ) ;
#220 = CARTESIAN_POINT ( 'NONE',  ( -7.500000000000000000, 9.184850993605147944E-16, 20.00000000000000000 ) ) ;
#221 = ORIENTED_EDGE ( 'NONE', *, *, #388, .T. ) ;
#222 = CARTESIAN_POINT ( 'NONE',  ( 0.000000000000000000, 0.000000000000000000, 0.000000000000000000 ) ) ;
#223 = EDGE_CURVE ( 'NONE', #264, #403, #71, .T. ) ;
#224 = AXIS2_PLACEMENT_3D ( 'NONE', #164, #127, #309 ) ;
#225 = LOCAL_TIME ( 8, 52, 27.00000000000000000, #192 ) ;
#226 = PLANE ( 'NONE',  #42 ) ;
#227 = VERTEX_POINT ( 'NONE', #10 ) ;
#228 = CARTESIAN_POINT ( 'NONE',  ( 0.000000000000000000, 0.000000000000000000, 20.00000000000000000 ) ) ;
#229 = ORIENTED_EDGE ( 'NONE', *, *, #190, .F. ) ;
#230 = CALENDAR_DATE ( 2021, 25, 10 ) ;
#231 = AXIS2_PLACEMENT_3D ( 'NONE', #43, #328, #244 ) ;
#232 = EDGE_CURVE ( 'NONE', #130, #342, #263, .T. ) ;
#233 = CIRCLE ( 'NONE', #277, 10.00000000000000000 ) ;
#234 = APPROVAL ( #82, 'UNSPECIFIED' ) ;
#235 = ORIENTED_EDGE ( 'NONE', *, *, #306, .F. ) ;
#236 = EDGE_CURVE ( 'NONE', #136, #264, #67, .T. ) ;
#237 = CIRCLE ( 'NONE', #333, 5.500000000000000000 ) ;
#238 = EDGE_LOOP ( 'NONE', ( #31, #200, #221, #6 ) ) ;
#239 = CARTESIAN_POINT ( 'NONE',  ( 0.000000000000000000, 0.000000000000000000, 20.00000000000000000 ) ) ;
#240 =( NAMED_UNIT ( * ) PLANE_ANGLE_UNIT ( ) SI_UNIT ( $, .RADIAN. ) );
#241 = CC_DESIGN_APPROVAL ( #234, ( #387 ) ) ;
#242 = FACE_BOUND ( 'NONE', #63, .T. ) ;
#243 = CC_DESIGN_PERSON_AND_ORGANIZATION_ASSIGNMENT ( #373, #60, ( #313 ) ) ;
#244 = DIRECTION ( 'NONE',  ( 1.000000000000000000, 0.000000000000000000, 0.000000000000000000 ) ) ;
#245 = LINE ( 'NONE', #52, #292 ) ;
#246 = DIRECTION ( 'NONE',  ( 0.000000000000000000, 0.000000000000000000, 1.000000000000000000 ) ) ;
#247 = CIRCLE ( 'NONE', #224, 5.500000000000000000 ) ;
#248 = PRODUCT_DEFINITION ( 'UNKNOWN', '', #348, #137 ) ;
#249 = CARTESIAN_POINT ( 'NONE',  ( 5.500000000000000000, 0.000000000000000000, 18.00000000000000000 ) ) ;
#250 = ORIENTED_EDGE ( 'NONE', *, *, #142, .F. ) ;
#251 = EDGE_LOOP ( 'NONE', ( #349, #69 ) ) ;
#252 = VECTOR ( 'NONE', #392, 1000.000000000000000 ) ;
#253 = ORIENTED_EDGE ( 'NONE', *, *, #265, .F. ) ;
#254 = AXIS2_PLACEMENT_3D ( 'NONE', #117, #276, #78 ) ;
#255 = DATE_AND_TIME ( #138, #133 ) ;
#256 = DIRECTION ( 'NONE',  ( 0.000000000000000000, 0.000000000000000000, 1.000000000000000000 ) ) ;
#257 = ORIENTED_EDGE ( 'NONE', *, *, #265, .T. ) ;
#258 = APPROVAL_STATUS ( 'not_yet_approved' ) ;
#259 = ORIENTED_EDGE ( 'NONE', *, *, #232, .F. ) ;
#260 = EDGE_CURVE ( 'NONE', #98, #24, #268, .T. ) ;
#261 = CIRCLE ( 'NONE', #356, 10.00000000000000000 ) ;
#262 = PERSON_AND_ORGANIZATION_ROLE ( 'design_supplier' ) ;
#263 = LINE ( 'NONE', #41, #202 ) ;
#264 = VERTEX_POINT ( 'NONE', #114 ) ;
#265 = EDGE_CURVE ( 'NONE', #24, #201, #386, .T. ) ;
#266 = CARTESIAN_POINT ( 'NONE',  ( 0.000000000000000000, 0.000000000000000000, 20.00000000000000000 ) ) ;
#267 = AXIS2_PLACEMENT_3D ( 'NONE', #304, #326, #126 ) ;
#268 = LINE ( 'NONE', #148, #347 ) ;
#269 = EDGE_CURVE ( 'NONE', #319, #130, #391, .T. ) ;
#270 = CARTESIAN_POINT ( 'NONE',  ( -10.00000000000000000, 1.224646799147353256E-15, 20.00000000000000000 ) ) ;
#271 = FACE_BOUND ( 'NONE', #74, .T. ) ;
#272 = CARTESIAN_POINT ( 'NONE',  ( 0.000000000000000000, 0.000000000000000000, 25.00000000000000000 ) ) ;
#273 = AXIS2_PLACEMENT_3D ( 'NONE', #228, #64, #371 ) ;
#274 = FACE_OUTER_BOUND ( 'NONE', #308, .T. ) ;
#275 = CLOSED_SHELL ( 'NONE', ( #134, #112, #362, #33, #118, #94, #65, #338, #209, #197, #404, #377 ) ) ;
#276 = DIRECTION ( 'NONE',  ( 0.000000000000000000, 0.000000000000000000, 1.000000000000000000 ) ) ;
#277 = AXIS2_PLACEMENT_3D ( 'NONE', #341, #311, #53 ) ;
#278 = DIRECTION ( 'NONE',  ( 1.000000000000000000, 0.000000000000000000, 0.000000000000000000 ) ) ;
#279 = PERSON_AND_ORGANIZATION ( #89, #357 ) ;
#280 = EDGE_CURVE ( 'NONE', #305, #403, #97, .T. ) ;
#281 = EDGE_LOOP ( 'NONE', ( #346, #293 ) ) ;
#282 = CARTESIAN_POINT ( 'NONE',  ( 7.500000000000000000, 0.000000000000000000, 20.00000000000000000 ) ) ;
#283 = ORIENTED_EDGE ( 'NONE', *, *, #232, .T. ) ;
#284 = UNCERTAINTY_MEASURE_WITH_UNIT (LENGTH_MEASURE( 1.000000000000000082E-05 ), #207, 'distance_accuracy_value', 'NONE');
#285 =( GEOMETRIC_REPRESENTATION_CONTEXT ( 3 ) GLOBAL_UNCERTAINTY_ASSIGNED_CONTEXT ( ( #284 ) ) GLOBAL_UNIT_ASSIGNED_CONTEXT ( ( #207, #240, #55 ) ) REPRESENTATION_CONTEXT ( 'NONE', 'WORKASPACE' ) );
#286 = COORDINATED_UNIVERSAL_TIME_OFFSET ( 9, 0, .AHEAD. ) ;
#287 = EDGE_LOOP ( 'NONE', ( #355, #108 ) ) ;
#288 = APPLICATION_CONTEXT ( 'configuration controlled 3d designs of mechanical parts and assemblies' ) ;
#289 = CARTESIAN_POINT ( 'NONE',  ( -5.500000000000000000, 6.735557395310442023E-16, 20.00000000000000000 ) ) ;
#290 = ORIENTED_EDGE ( 'NONE', *, *, #269, .F. ) ;
#291 = PERSON_AND_ORGANIZATION ( #89, #357 ) ;
#292 = VECTOR ( 'NONE', #123, 1000.000000000000000 ) ;
#293 = ORIENTED_EDGE ( 'NONE', *, *, #344, .F. ) ;
#294 = AXIS2_PLACEMENT_3D ( 'NONE', #3, #352, #385 ) ;
#295 = EDGE_LOOP ( 'NONE', ( #290, #339, #128, #259 ) ) ;
#296 = AXIS2_PLACEMENT_3D ( 'NONE', #146, #38, #199 ) ;
#297 = CARTESIAN_POINT ( 'NONE',  ( 0.000000000000000000, 0.000000000000000000, 0.000000000000000000 ) ) ;
#298 = CYLINDRICAL_SURFACE ( 'NONE', #402, 7.500000000000000000 ) ;
#299 = DIRECTION ( 'NONE',  ( 1.000000000000000000, 0.000000000000000000, 0.000000000000000000 ) ) ;
#300 = AXIS2_PLACEMENT_3D ( 'NONE', #34, #4, #143 ) ;
#301 = FACE_OUTER_BOUND ( 'NONE', #56, .T. ) ;
#302 = APPROVAL_ROLE ( '' ) ;
#303 = DIRECTION ( 'NONE',  ( 0.000000000000000000, 0.000000000000000000, 1.000000000000000000 ) ) ;
#304 = CARTESIAN_POINT ( 'NONE',  ( 7.500000000000000000, 0.000000000000000000, 0.000000000000000000 ) ) ;
#305 = VERTEX_POINT ( 'NONE', #367 ) ;
#306 = EDGE_CURVE ( 'NONE', #201, #24, #160, .T. ) ;
#307 = CC_DESIGN_SECURITY_CLASSIFICATION ( #387, ( #348 ) ) ;
#308 = EDGE_LOOP ( 'NONE', ( #257, #40 ) ) ;
#309 = DIRECTION ( 'NONE',  ( 1.000000000000000000, 0.000000000000000000, 0.000000000000000000 ) ) ;
#310 = PERSON_AND_ORGANIZATION ( #89, #357 ) ;
#311 = DIRECTION ( 'NONE',  ( 0.000000000000000000, 0.000000000000000000, 1.000000000000000000 ) ) ;
#312 = ORIENTED_EDGE ( 'NONE', *, *, #260, .T. ) ;
#313 = PRODUCT ( 'bj401-06002', 'bj401-06002', '', ( #28 ) ) ;
#314 = APPROVAL_DATE_TIME ( #66, #122 ) ;
#315 = CC_DESIGN_DATE_AND_TIME_ASSIGNMENT ( #255, #380, ( #248 ) ) ;
#316 = ORIENTED_EDGE ( 'NONE', *, *, #236, .T. ) ;
#317 = ORIENTED_EDGE ( 'NONE', *, *, #159, .F. ) ;
#318 = DIRECTION ( 'NONE',  ( 0.000000000000000000, 0.000000000000000000, 1.000000000000000000 ) ) ;
#319 = VERTEX_POINT ( 'NONE', #177 ) ;
#320 = CIRCLE ( 'NONE', #294, 3.299999999999999822 ) ;
#321 = CARTESIAN_POINT ( 'NONE',  ( 5.500000000000000000, 0.000000000000000000, 18.00000000000000000 ) ) ;
#322 = AXIS2_PLACEMENT_3D ( 'NONE', #169, #86, #399 ) ;
#323 = DIRECTION ( 'NONE',  ( 1.000000000000000000, 0.000000000000000000, 0.000000000000000000 ) ) ;
#324 = CYLINDRICAL_SURFACE ( 'NONE', #405, 5.500000000000000000 ) ;
#325 = DATE_TIME_ROLE ( 'classification_date' ) ;
#326 = DIRECTION ( 'NONE',  ( 0.000000000000000000, 0.000000000000000000, 1.000000000000000000 ) ) ;
#327 = EDGE_CURVE ( 'NONE', #98, #379, #261, .T. ) ;
#328 = DIRECTION ( 'NONE',  ( 0.000000000000000000, 0.000000000000000000, 1.000000000000000000 ) ) ;
#329 = APPLICATION_CONTEXT ( 'configuration controlled 3d designs of mechanical parts and assemblies' ) ;
#330 = CYLINDRICAL_SURFACE ( 'NONE', #166, 3.299999999999999822 ) ;
#331 = DIRECTION ( 'NONE',  ( -1.000000000000000000, 0.000000000000000000, 0.000000000000000000 ) ) ;
#332 = DIRECTION ( 'NONE',  ( 0.000000000000000000, 0.000000000000000000, 1.000000000000000000 ) ) ;
#333 = AXIS2_PLACEMENT_3D ( 'NONE', #14, #332, #151 ) ;
#334 = CARTESIAN_POINT ( 'NONE',  ( 7.500000000000000000, 0.000000000000000000, 0.000000000000000000 ) ) ;
#335 = FACE_OUTER_BOUND ( 'NONE', #295, .T. ) ;
#336 = CARTESIAN_POINT ( 'NONE',  ( -10.00000000000000000, 1.224646799147353256E-15, 25.00000000000000000 ) ) ;
#337 = EDGE_LOOP ( 'NONE', ( #250, #162, #283, #167 ) ) ;
#338 = ADVANCED_FACE ( 'NONE', ( #12 ), #330, .F. ) ;
#339 = ORIENTED_EDGE ( 'NONE', *, *, #142, .T. ) ;
#340 = VECTOR ( 'NONE', #23, 1000.000000000000000 ) ;
#341 = CARTESIAN_POINT ( 'NONE',  ( 0.000000000000000000, 0.000000000000000000, 0.000000000000000000 ) ) ;
#342 = VERTEX_POINT ( 'NONE', #369 ) ;
#343 = ADVANCED_BREP_SHAPE_REPRESENTATION ( 'bj401-06002', ( #62, #370 ), #285 ) ;
#344 = EDGE_CURVE ( 'NONE', #403, #305, #237, .T. ) ;
#345 = ORIENTED_EDGE ( 'NONE', *, *, #186, .T. ) ;
#346 = ORIENTED_EDGE ( 'NONE', *, *, #280, .F. ) ;
#347 = VECTOR ( 'NONE', #351, 1000.000000000000000 ) ;
#348 = PRODUCT_DEFINITION_FORMATION_WITH_SPECIFIED_SOURCE ( 'ANY', '', #313, .NOT_KNOWN. ) ;
#349 = ORIENTED_EDGE ( 'NONE', *, *, #77, .T. ) ;
#350 = EDGE_CURVE ( 'NONE', #72, #59, #16, .T. ) ;
#351 = DIRECTION ( 'NONE',  ( 0.000000000000000000, 0.000000000000000000, 1.000000000000000000 ) ) ;
#352 = DIRECTION ( 'NONE',  ( 0.000000000000000000, 0.000000000000000000, 1.000000000000000000 ) ) ;
#353 = CARTESIAN_POINT ( 'NONE',  ( 3.299999999999999822, 0.000000000000000000, -10.00000000000000000 ) ) ;
#354 = CIRCLE ( 'NONE', #111, 7.500000000000000000 ) ;
#355 = ORIENTED_EDGE ( 'NONE', *, *, #178, .F. ) ;
#356 = AXIS2_PLACEMENT_3D ( 'NONE', #365, #303, #22 ) ;
#357 = ORGANIZATION ( 'UNSPECIFIED', 'UNSPECIFIED', '' ) ;
#358 = FACE_BOUND ( 'NONE', #281, .T. ) ;
#359 = AXIS2_PLACEMENT_3D ( 'NONE', #266, #390, #210 ) ;
#360 = DIRECTION ( 'NONE',  ( 0.000000000000000000, 0.000000000000000000, -1.000000000000000000 ) ) ;
#361 = DIRECTION ( 'NONE',  ( 0.000000000000000000, 0.000000000000000000, 1.000000000000000000 ) ) ;
#362 = ADVANCED_FACE ( 'NONE', ( #335 ), #185, .F. ) ;
#363 = DIRECTION ( 'NONE',  ( 1.000000000000000000, 0.000000000000000000, 0.000000000000000000 ) ) ;
#364 = DATE_AND_TIME ( #214, #81 ) ;
#365 = CARTESIAN_POINT ( 'NONE',  ( 0.000000000000000000, 0.000000000000000000, 0.000000000000000000 ) ) ;
#366 = CARTESIAN_POINT ( 'NONE',  ( 10.00000000000000000, 0.000000000000000000, 0.000000000000000000 ) ) ;
#367 = CARTESIAN_POINT ( 'NONE',  ( 5.500000000000000000, 0.000000000000000000, 25.00000000000000000 ) ) ;
#368 = COORDINATED_UNIVERSAL_TIME_OFFSET ( 9, 0, .AHEAD. ) ;
#369 = CARTESIAN_POINT ( 'NONE',  ( 3.299999999999999822, 0.000000000000000000, 18.00000000000000000 ) ) ;
#370 = AXIS2_PLACEMENT_3D ( 'NONE', #222, #129, #99 ) ;
#371 = DIRECTION ( 'NONE',  ( 1.000000000000000000, 0.000000000000000000, 0.000000000000000000 ) ) ;
#372 = ORIENTED_EDGE ( 'NONE', *, *, #13, .F. ) ;
#373 = PERSON_AND_ORGANIZATION ( #89, #357 ) ;
#374 = CARTESIAN_POINT ( 'NONE',  ( 0.000000000000000000, 0.000000000000000000, 18.00000000000000000 ) ) ;
#375 = CIRCLE ( 'NONE', #173, 3.299999999999999822 ) ;
#376 = APPLICATION_PROTOCOL_DEFINITION ( 'international standard', 'config_control_design', 1994, #288 ) ;
#377 = ADVANCED_FACE ( 'NONE', ( #149 ), #181, .T. ) ;
#378 = AXIS2_PLACEMENT_3D ( 'NONE', #397, #19, #331 ) ;
#379 = VERTEX_POINT ( 'NONE', #121 ) ;
#380 = DATE_TIME_ROLE ( 'creation_date' ) ;
#381 = CC_DESIGN_DATE_AND_TIME_ASSIGNMENT ( #364, #325, ( #387 ) ) ;
#382 = FACE_OUTER_BOUND ( 'NONE', #383, .T. ) ;
#383 = EDGE_LOOP ( 'NONE', ( #229, #145, #147, #139 ) ) ;
#384 = APPROVAL_ROLE ( '' ) ;
#385 = DIRECTION ( 'NONE',  ( 1.000000000000000000, 0.000000000000000000, 0.000000000000000000 ) ) ;
#386 = CIRCLE ( 'NONE', #300, 10.00000000000000000 ) ;
#387 = SECURITY_CLASSIFICATION ( '', '', #106 ) ;
#388 = EDGE_CURVE ( 'NONE', #136, #305, #245, .T. ) ;
#389 = VERTEX_POINT ( 'NONE', #184 ) ;
#390 = DIRECTION ( 'NONE',  ( 0.000000000000000000, 0.000000000000000000, 1.000000000000000000 ) ) ;
#391 = CIRCLE ( 'NONE', #322, 3.299999999999999822 ) ;
#392 = DIRECTION ( 'NONE',  ( 0.000000000000000000, 0.000000000000000000, 1.000000000000000000 ) ) ;
#393 = APPROVAL_DATE_TIME ( #211, #234 ) ;
#394 = CARTESIAN_POINT ( 'NONE',  ( 0.000000000000000000, 0.000000000000000000, -10.00000000000000000 ) ) ;
#395 = AXIS2_PLACEMENT_3D ( 'NONE', #61, #58, #278 ) ;
#396 = CARTESIAN_POINT ( 'NONE',  ( 0.000000000000000000, 0.000000000000000000, 0.000000000000000000 ) ) ;
#397 = CARTESIAN_POINT ( 'NONE',  ( 10.00000000000000000, 0.000000000000000000, 25.00000000000000000 ) ) ;
#398 = FACE_OUTER_BOUND ( 'NONE', #219, .T. ) ;
#399 = DIRECTION ( 'NONE',  ( 1.000000000000000000, 0.000000000000000000, 0.000000000000000000 ) ) ;
#400 = LINE ( 'NONE', #124, #115 ) ;
#401 = PLANE ( 'NONE',  #267 ) ;
#402 = AXIS2_PLACEMENT_3D ( 'NONE', #239, #50, #80 ) ;
#403 = VERTEX_POINT ( 'NONE', #21 ) ;
#404 = ADVANCED_FACE ( 'NONE', ( #156, #271 ), #401, .F. ) ;
#405 = AXIS2_PLACEMENT_3D ( 'NONE', #48, #113, #179 ) ;
#406 = CALENDAR_DATE ( 2021, 25, 10 ) ;
#407 = LINE ( 'NONE', #220, #36 ) ;
#408 = PERSON_AND_ORGANIZATION ( #89, #357 ) ;
#409 = ORIENTED_EDGE ( 'NONE', *, *, #45, .F. ) ;
ENDSEC;
END-ISO-10303-21;
