ISO-10303-21;
HEADER;
FILE_DESCRIPTION (( 'STEP AP203' ),
    '1' );
FILE_NAME ('bj300-16080.STEP',
    '2021-10-24T23:51:42',
    ( '' ),
    ( '' ),
    'SwSTEP 2.0',
    'SolidWorks 2020',
    '' );
FILE_SCHEMA (( 'CONFIG_CONTROL_DESIGN' ));
ENDSEC;

DATA;
#1 = DIRECTION ( 'NONE',  ( 0.000000000000000000, 0.000000000000000000, 1.000000000000000000 ) ) ;
#2 = ORIENTED_EDGE ( 'NONE', *, *, #18, .T. ) ;
#3 = CIRCLE ( 'NONE', #171, 25.00000000000000000 ) ;
#4 = CARTESIAN_POINT ( 'NONE',  ( 0.000000000000000000, 0.000000000000000000, 40.00000000000000000 ) ) ;
#5 = CARTESIAN_POINT ( 'NONE',  ( 0.000000000000000000, 0.000000000000000000, 0.000000000000000000 ) ) ;
#6 = ORIENTED_EDGE ( 'NONE', *, *, #294, .T. ) ;
#7 = DATE_AND_TIME ( #42, #279 ) ;
#8 = LINE ( 'NONE', #118, #250 ) ;
#9 = ORIENTED_EDGE ( 'NONE', *, *, #255, .T. ) ;
#10 = ADVANCED_FACE ( 'NONE', ( #276 ), #131, .F. ) ;
#11 = FACE_OUTER_BOUND ( 'NONE', #158, .T. ) ;
#12 = AXIS2_PLACEMENT_3D ( 'NONE', #47, #196, #25 ) ;
#13 = ADVANCED_FACE ( 'NONE', ( #251, #301 ), #275, .F. ) ;
#14 = COORDINATED_UNIVERSAL_TIME_OFFSET ( 9, 0, .AHEAD. ) ;
#15 = DIRECTION ( 'NONE',  ( 1.000000000000000000, 0.000000000000000000, 0.000000000000000000 ) ) ;
#16 = DATE_AND_TIME ( #245, #154 ) ;
#17 = DESIGN_CONTEXT ( 'detailed design', #299, 'design' ) ;
#18 = EDGE_CURVE ( 'NONE', #149, #194, #319, .T. ) ;
#19 = PRODUCT_RELATED_PRODUCT_CATEGORY ( 'detail', '', ( #263 ) ) ;
#20 = EDGE_LOOP ( 'NONE', ( #261, #49, #100, #199 ) ) ;
#21 = APPROVAL_PERSON_ORGANIZATION ( #114, #232, #316 ) ;
#22 = DIRECTION ( 'NONE',  ( 1.000000000000000000, 0.000000000000000000, 0.000000000000000000 ) ) ;
#23 = ORIENTED_EDGE ( 'NONE', *, *, #156, .F. ) ;
#24 = AXIS2_PLACEMENT_3D ( 'NONE', #252, #153, #179 ) ;
#25 = DIRECTION ( 'NONE',  ( 1.000000000000000000, 0.000000000000000000, 0.000000000000000000 ) ) ;
#26 = DIRECTION ( 'NONE',  ( -1.000000000000000000, 0.000000000000000000, 0.000000000000000000 ) ) ;
#27 = EDGE_LOOP ( 'NONE', ( #2, #82 ) ) ;
#28 = ORIENTED_EDGE ( 'NONE', *, *, #246, .F. ) ;
#29 = ORIENTED_EDGE ( 'NONE', *, *, #274, .T. ) ;
#30 = ORIENTED_EDGE ( 'NONE', *, *, #238, .F. ) ;
#31 = CIRCLE ( 'NONE', #288, 25.00000000000000000 ) ;
#32 = EDGE_CURVE ( 'NONE', #180, #229, #272, .T. ) ;
#33 = EDGE_LOOP ( 'NONE', ( #304, #9, #106, #23 ) ) ;
#34 = CYLINDRICAL_SURFACE ( 'NONE', #71, 25.00000000000000000 ) ;
#35 = DIRECTION ( 'NONE',  ( 0.000000000000000000, 0.000000000000000000, 1.000000000000000000 ) ) ;
#36 = COORDINATED_UNIVERSAL_TIME_OFFSET ( 9, 0, .AHEAD. ) ;
#37 = DIRECTION ( 'NONE',  ( 1.000000000000000000, 0.000000000000000000, 0.000000000000000000 ) ) ;
#38 = AXIS2_PLACEMENT_3D ( 'NONE', #5, #204, #124 ) ;
#39 = PERSON_AND_ORGANIZATION_ROLE ( 'design_owner' ) ;
#40 = CARTESIAN_POINT ( 'NONE',  ( -9.000000000000000000, 1.102182119232617714E-15, 0.000000000000000000 ) ) ;
#41 = MANIFOLD_SOLID_BREP ( 'Imported1', #87 ) ;
#42 = CALENDAR_DATE ( 2021, 25, 10 ) ;
#43 = AXIS2_PLACEMENT_3D ( 'NONE', #48, #302, #26 ) ;
#44 = ORGANIZATION ( 'UNSPECIFIED', 'UNSPECIFIED', '' ) ;
#45 = ORIENTED_EDGE ( 'NONE', *, *, #246, .T. ) ;
#46 = PERSON ( 'UNSPECIFIED', 'UNSPECIFIED', 'UNSPECIFIED', ('UNSPECIFIED'), ('UNSPECIFIED'), ('UNSPECIFIED') ) ;
#47 = CARTESIAN_POINT ( 'NONE',  ( 0.000000000000000000, 0.000000000000000000, 35.00000000000000000 ) ) ;
#48 = CARTESIAN_POINT ( 'NONE',  ( 13.00000000000000000, 0.000000000000000000, 35.00000000000000000 ) ) ;
#49 = ORIENTED_EDGE ( 'NONE', *, *, #18, .F. ) ;
#50 = EDGE_CURVE ( 'NONE', #180, #176, #173, .T. ) ;
#51 = DIRECTION ( 'NONE',  ( 0.000000000000000000, 0.000000000000000000, -1.000000000000000000 ) ) ;
#52 = CARTESIAN_POINT ( 'NONE',  ( 13.00000000000000000, 0.000000000000000000, 40.00000000000000000 ) ) ;
#53 = FACE_OUTER_BOUND ( 'NONE', #33, .T. ) ;
#54 = DIRECTION ( 'NONE',  ( 0.000000000000000000, 0.000000000000000000, 1.000000000000000000 ) ) ;
#55 = VERTEX_POINT ( 'NONE', #75 ) ;
#56 = EDGE_CURVE ( 'NONE', #258, #205, #187, .T. ) ;
#57 = DIRECTION ( 'NONE',  ( 1.000000000000000000, 0.000000000000000000, 0.000000000000000000 ) ) ;
#58 = EDGE_LOOP ( 'NONE', ( #322, #256 ) ) ;
#59 = LINE ( 'NONE', #264, #273 ) ;
#60 = CIRCLE ( 'NONE', #62, 25.00000000000000000 ) ;
#61 = EDGE_LOOP ( 'NONE', ( #135, #147, #305, #98 ) ) ;
#62 = AXIS2_PLACEMENT_3D ( 'NONE', #142, #312, #184 ) ;
#63 = PERSON_AND_ORGANIZATION_ROLE ( 'classification_officer' ) ;
#64 = DIRECTION ( 'NONE',  ( 0.000000000000000000, 0.000000000000000000, 1.000000000000000000 ) ) ;
#65 = DIRECTION ( 'NONE',  ( 1.000000000000000000, 0.000000000000000000, 0.000000000000000000 ) ) ;
#66 = DIRECTION ( 'NONE',  ( 1.000000000000000000, 0.000000000000000000, 0.000000000000000000 ) ) ;
#67 = COORDINATED_UNIVERSAL_TIME_OFFSET ( 9, 0, .AHEAD. ) ;
#68 = DIRECTION ( 'NONE',  ( 1.000000000000000000, 0.000000000000000000, 0.000000000000000000 ) ) ;
#69 = CC_DESIGN_APPROVAL ( #232, ( #242 ) ) ;
#70 = APPROVAL_STATUS ( 'not_yet_approved' ) ;
#71 = AXIS2_PLACEMENT_3D ( 'NONE', #4, #137, #236 ) ;
#72 = SECURITY_CLASSIFICATION ( '', '', #206 ) ;
#73 = DIRECTION ( 'NONE',  ( 0.000000000000000000, 0.000000000000000000, 1.000000000000000000 ) ) ;
#74 = CC_DESIGN_APPROVAL ( #282, ( #303 ) ) ;
#75 = CARTESIAN_POINT ( 'NONE',  ( -25.00000000000000000, 3.061616997868383043E-15, 80.00000000000000000 ) ) ;
#76 =( NAMED_UNIT ( * ) SI_UNIT ( $, .STERADIAN. ) SOLID_ANGLE_UNIT ( ) );
#77 = CC_DESIGN_PERSON_AND_ORGANIZATION_ASSIGNMENT ( #266, #185, ( #242 ) ) ;
#78 = DIRECTION ( 'NONE',  ( 0.000000000000000000, 0.000000000000000000, 1.000000000000000000 ) ) ;
#79 = VERTEX_POINT ( 'NONE', #221 ) ;
#80 = ADVANCED_FACE ( 'NONE', ( #53 ), #151, .F. ) ;
#81 = APPROVAL_PERSON_ORGANIZATION ( #269, #296, #164 ) ;
#82 = ORIENTED_EDGE ( 'NONE', *, *, #188, .T. ) ;
#83 = ORIENTED_EDGE ( 'NONE', *, *, #188, .F. ) ;
#84 = DIRECTION ( 'NONE',  ( 0.000000000000000000, 0.000000000000000000, 1.000000000000000000 ) ) ;
#85 = EDGE_LOOP ( 'NONE', ( #163, #159 ) ) ;
#86 = CARTESIAN_POINT ( 'NONE',  ( 0.000000000000000000, 0.000000000000000000, 40.00000000000000000 ) ) ;
#87 = CLOSED_SHELL ( 'NONE', ( #80, #146, #200, #13, #195, #189, #227, #277, #10 ) ) ;
#88 = DIRECTION ( 'NONE',  ( 0.000000000000000000, 0.000000000000000000, 1.000000000000000000 ) ) ;
#89 = DIRECTION ( 'NONE',  ( 1.000000000000000000, 0.000000000000000000, 0.000000000000000000 ) ) ;
#90 = CALENDAR_DATE ( 2021, 25, 10 ) ;
#91 = DIRECTION ( 'NONE',  ( 0.000000000000000000, 0.000000000000000000, 1.000000000000000000 ) ) ;
#92 = CIRCLE ( 'NONE', #193, 13.00000000000000000 ) ;
#93 = SHAPE_DEFINITION_REPRESENTATION ( #191, #95 ) ;
#94 = APPLICATION_CONTEXT ( 'configuration controlled 3d designs of mechanical parts and assemblies' ) ;
#95 = ADVANCED_BREP_SHAPE_REPRESENTATION ( 'bj300-16080', ( #41, #214 ), #268 ) ;
#96 = DIRECTION ( 'NONE',  ( 0.000000000000000000, 0.000000000000000000, 1.000000000000000000 ) ) ;
#97 = VECTOR ( 'NONE', #99, 1000.000000000000000 ) ;
#98 = ORIENTED_EDGE ( 'NONE', *, *, #103, .F. ) ;
#99 = DIRECTION ( 'NONE',  ( 0.000000000000000000, 0.000000000000000000, 1.000000000000000000 ) ) ;
#100 = ORIENTED_EDGE ( 'NONE', *, *, #238, .T. ) ;
#101 = APPLICATION_PROTOCOL_DEFINITION ( 'international standard', 'config_control_design', 1994, #94 ) ;
#102 = DIRECTION ( 'NONE',  ( 0.000000000000000000, 0.000000000000000000, 1.000000000000000000 ) ) ;
#103 = EDGE_CURVE ( 'NONE', #55, #176, #3, .T. ) ;
#104 = DIRECTION ( 'NONE',  ( 1.000000000000000000, 0.000000000000000000, 0.000000000000000000 ) ) ;
#105 = VECTOR ( 'NONE', #182, 1000.000000000000000 ) ;
#106 = ORIENTED_EDGE ( 'NONE', *, *, #113, .T. ) ;
#107 = CARTESIAN_POINT ( 'NONE',  ( -25.00000000000000000, 3.061616997868383043E-15, 0.000000000000000000 ) ) ;
#108 = CARTESIAN_POINT ( 'NONE',  ( 25.00000000000000000, 0.000000000000000000, 40.00000000000000000 ) ) ;
#109 = EDGE_LOOP ( 'NONE', ( #233, #197, #177, #45 ) ) ;
#110 = PERSON_AND_ORGANIZATION_ROLE ( 'creator' ) ;
#111 = FACE_BOUND ( 'NONE', #27, .T. ) ;
#112 = EDGE_LOOP ( 'NONE', ( #28, #283 ) ) ;
#113 = EDGE_CURVE ( 'NONE', #79, #160, #122, .T. ) ;
#114 = PERSON_AND_ORGANIZATION ( #46, #44 ) ;
#115 = CARTESIAN_POINT ( 'NONE',  ( 9.000000000000000000, 0.000000000000000000, 0.000000000000000000 ) ) ;
#116 = AXIS2_PLACEMENT_3D ( 'NONE', #86, #64, #89 ) ;
#117 = APPROVAL_ROLE ( '' ) ;
#118 = CARTESIAN_POINT ( 'NONE',  ( -25.00000000000000000, 3.061616997868383043E-15, 40.00000000000000000 ) ) ;
#119 = CC_DESIGN_DATE_AND_TIME_ASSIGNMENT ( #168, #309, ( #72 ) ) ;
#120 = PERSON_AND_ORGANIZATION_ROLE ( 'creator' ) ;
#121 = CARTESIAN_POINT ( 'NONE',  ( 25.00000000000000000, 0.000000000000000000, 80.00000000000000000 ) ) ;
#122 = CIRCLE ( 'NONE', #230, 13.00000000000000000 ) ;
#123 = AXIS2_PLACEMENT_3D ( 'NONE', #172, #84, #126 ) ;
#124 = DIRECTION ( 'NONE',  ( 1.000000000000000000, 0.000000000000000000, 0.000000000000000000 ) ) ;
#125 = VECTOR ( 'NONE', #298, 1000.000000000000000 ) ;
#126 = DIRECTION ( 'NONE',  ( 1.000000000000000000, 0.000000000000000000, 0.000000000000000000 ) ) ;
#127 = CARTESIAN_POINT ( 'NONE',  ( 0.000000000000000000, 0.000000000000000000, 40.00000000000000000 ) ) ;
#128 = CARTESIAN_POINT ( 'NONE',  ( 0.000000000000000000, 0.000000000000000000, 0.000000000000000000 ) ) ;
#129 = CARTESIAN_POINT ( 'NONE',  ( -9.000000000000000000, 1.102182119232617714E-15, 40.00000000000000000 ) ) ;
#130 = ORIENTED_EDGE ( 'NONE', *, *, #320, .T. ) ;
#131 = CYLINDRICAL_SURFACE ( 'NONE', #198, 13.00000000000000000 ) ;
#132 = APPROVAL_PERSON_ORGANIZATION ( #243, #282, #117 ) ;
#133 = ORIENTED_EDGE ( 'NONE', *, *, #315, .F. ) ;
#134 = CARTESIAN_POINT ( 'NONE',  ( 0.000000000000000000, 0.000000000000000000, 0.000000000000000000 ) ) ;
#135 = ORIENTED_EDGE ( 'NONE', *, *, #274, .F. ) ;
#136 = PERSON_AND_ORGANIZATION ( #46, #44 ) ;
#137 = DIRECTION ( 'NONE',  ( 0.000000000000000000, 0.000000000000000000, 1.000000000000000000 ) ) ;
#138 = EDGE_CURVE ( 'NONE', #284, #248, #92, .T. ) ;
#139 = PERSON_AND_ORGANIZATION ( #46, #44 ) ;
#140 = FACE_BOUND ( 'NONE', #112, .T. ) ;
#141 = VECTOR ( 'NONE', #96, 1000.000000000000000 ) ;
#142 = CARTESIAN_POINT ( 'NONE',  ( 0.000000000000000000, 0.000000000000000000, 0.000000000000000000 ) ) ;
#143 = COORDINATED_UNIVERSAL_TIME_OFFSET ( 9, 0, .AHEAD. ) ;
#144 = CARTESIAN_POINT ( 'NONE',  ( 0.000000000000000000, 0.000000000000000000, 40.00000000000000000 ) ) ;
#145 = LOCAL_TIME ( 8, 51, 42.00000000000000000, #36 ) ;
#146 = ADVANCED_FACE ( 'NONE', ( #237 ), #218, .T. ) ;
#147 = ORIENTED_EDGE ( 'NONE', *, *, #216, .T. ) ;
#148 = ORIENTED_EDGE ( 'NONE', *, *, #138, .T. ) ;
#149 = VERTEX_POINT ( 'NONE', #225 ) ;
#150 = DIRECTION ( 'NONE',  ( 0.000000000000000000, 0.000000000000000000, 1.000000000000000000 ) ) ;
#151 = CYLINDRICAL_SURFACE ( 'NONE', #24, 13.00000000000000000 ) ;
#152 = CIRCLE ( 'NONE', #12, 13.00000000000000000 ) ;
#153 = DIRECTION ( 'NONE',  ( 0.000000000000000000, 0.000000000000000000, 1.000000000000000000 ) ) ;
#154 = LOCAL_TIME ( 8, 51, 42.00000000000000000, #143 ) ;
#155 = CARTESIAN_POINT ( 'NONE',  ( 0.000000000000000000, 0.000000000000000000, 80.00000000000000000 ) ) ;
#156 = EDGE_CURVE ( 'NONE', #248, #160, #280, .T. ) ;
#157 = CARTESIAN_POINT ( 'NONE',  ( 0.000000000000000000, 0.000000000000000000, 35.00000000000000000 ) ) ;
#158 = EDGE_LOOP ( 'NONE', ( #281, #308 ) ) ;
#159 = ORIENTED_EDGE ( 'NONE', *, *, #174, .F. ) ;
#160 = VERTEX_POINT ( 'NONE', #190 ) ;
#161 = CARTESIAN_POINT ( 'NONE',  ( 13.00000000000000000, 0.000000000000000000, 35.00000000000000000 ) ) ;
#162 = CIRCLE ( 'NONE', #210, 9.000000000000000000 ) ;
#163 = ORIENTED_EDGE ( 'NONE', *, *, #56, .F. ) ;
#164 = APPROVAL_ROLE ( '' ) ;
#165 = FACE_OUTER_BOUND ( 'NONE', #307, .T. ) ;
#166 = PERSON_AND_ORGANIZATION ( #46, #44 ) ;
#167 = FACE_OUTER_BOUND ( 'NONE', #58, .T. ) ;
#168 = DATE_AND_TIME ( #90, #145 ) ;
#169 = CARTESIAN_POINT ( 'NONE',  ( 25.00000000000000000, 0.000000000000000000, 0.000000000000000000 ) ) ;
#170 = COORDINATED_UNIVERSAL_TIME_OFFSET ( 9, 0, .AHEAD. ) ;
#171 = AXIS2_PLACEMENT_3D ( 'NONE', #326, #78, #254 ) ;
#172 = CARTESIAN_POINT ( 'NONE',  ( 0.000000000000000000, 0.000000000000000000, 35.00000000000000000 ) ) ;
#173 = LINE ( 'NONE', #108, #125 ) ;
#174 = EDGE_CURVE ( 'NONE', #205, #258, #162, .T. ) ;
#175 = DIRECTION ( 'NONE',  ( 0.000000000000000000, 0.000000000000000000, 1.000000000000000000 ) ) ;
#176 = VERTEX_POINT ( 'NONE', #262 ) ;
#177 = ORIENTED_EDGE ( 'NONE', *, *, #156, .T. ) ;
#178 = PLANE ( 'NONE',  #323 ) ;
#179 = DIRECTION ( 'NONE',  ( 1.000000000000000000, 0.000000000000000000, 0.000000000000000000 ) ) ;
#180 = VERTEX_POINT ( 'NONE', #169 ) ;
#181 = APPROVAL_STATUS ( 'not_yet_approved' ) ;
#182 = DIRECTION ( 'NONE',  ( 0.000000000000000000, 0.000000000000000000, 1.000000000000000000 ) ) ;
#183 = PERSON_AND_ORGANIZATION ( #46, #44 ) ;
#184 = DIRECTION ( 'NONE',  ( 1.000000000000000000, 0.000000000000000000, 0.000000000000000000 ) ) ;
#185 = PERSON_AND_ORGANIZATION_ROLE ( 'design_supplier' ) ;
#186 = CYLINDRICAL_SURFACE ( 'NONE', #278, 9.000000000000000000 ) ;
#187 = CIRCLE ( 'NONE', #123, 9.000000000000000000 ) ;
#188 = EDGE_CURVE ( 'NONE', #194, #149, #313, .T. ) ;
#189 = ADVANCED_FACE ( 'NONE', ( #167, #111 ), #178, .F. ) ;
#190 = CARTESIAN_POINT ( 'NONE',  ( 13.00000000000000000, 0.000000000000000000, 80.00000000000000000 ) ) ;
#191 = PRODUCT_DEFINITION_SHAPE ( 'NONE', 'NONE',  #303 ) ;
#192 = AXIS2_PLACEMENT_3D ( 'NONE', #244, #88, #15 ) ;
#193 = AXIS2_PLACEMENT_3D ( 'NONE', #157, #1, #104 ) ;
#194 = VERTEX_POINT ( 'NONE', #40 ) ;
#195 = ADVANCED_FACE ( 'NONE', ( #267 ), #186, .F. ) ;
#196 = DIRECTION ( 'NONE',  ( 0.000000000000000000, 0.000000000000000000, 1.000000000000000000 ) ) ;
#197 = ORIENTED_EDGE ( 'NONE', *, *, #320, .F. ) ;
#198 = AXIS2_PLACEMENT_3D ( 'NONE', #231, #175, #57 ) ;
#199 = ORIENTED_EDGE ( 'NONE', *, *, #56, .T. ) ;
#200 = ADVANCED_FACE ( 'NONE', ( #165 ), #213, .F. ) ;
#201 =( NAMED_UNIT ( * ) PLANE_ANGLE_UNIT ( ) SI_UNIT ( $, .RADIAN. ) );
#202 = ORIENTED_EDGE ( 'NONE', *, *, #50, .F. ) ;
#203 = CARTESIAN_POINT ( 'NONE',  ( 0.000000000000000000, 0.000000000000000000, 35.00000000000000000 ) ) ;
#204 = DIRECTION ( 'NONE',  ( 0.000000000000000000, 0.000000000000000000, 1.000000000000000000 ) ) ;
#205 = VERTEX_POINT ( 'NONE', #317 ) ;
#206 = SECURITY_CLASSIFICATION_LEVEL ( 'unclassified' ) ;
#207 = FACE_OUTER_BOUND ( 'NONE', #61, .T. ) ;
#208 = CALENDAR_DATE ( 2021, 25, 10 ) ;
#209 = CARTESIAN_POINT ( 'NONE',  ( 9.000000000000000000, 0.000000000000000000, 40.00000000000000000 ) ) ;
#210 = AXIS2_PLACEMENT_3D ( 'NONE', #203, #290, #66 ) ;
#211 = APPROVAL_DATE_TIME ( #239, #282 ) ;
#212 = PLANE ( 'NONE',  #295 ) ;
#213 = CYLINDRICAL_SURFACE ( 'NONE', #116, 9.000000000000000000 ) ;
#214 = AXIS2_PLACEMENT_3D ( 'NONE', #293, #73, #65 ) ;
#215 = CC_DESIGN_PERSON_AND_ORGANIZATION_ASSIGNMENT ( #183, #120, ( #303 ) ) ;
#216 = EDGE_CURVE ( 'NONE', #229, #180, #60, .T. ) ;
#217 = APPROVAL_DATE_TIME ( #16, #296 ) ;
#218 = CYLINDRICAL_SURFACE ( 'NONE', #241, 25.00000000000000000 ) ;
#219 = EDGE_LOOP ( 'NONE', ( #130, #148 ) ) ;
#220 = AXIS2_PLACEMENT_3D ( 'NONE', #128, #102, #22 ) ;
#221 = CARTESIAN_POINT ( 'NONE',  ( -13.00000000000000000, 1.592040838891559095E-15, 80.00000000000000000 ) ) ;
#222 = DIRECTION ( 'NONE',  ( -1.000000000000000000, 0.000000000000000000, 0.000000000000000000 ) ) ;
#223 = MECHANICAL_CONTEXT ( 'NONE', #94, 'mechanical' ) ;
#224 = CARTESIAN_POINT ( 'NONE',  ( 0.000000000000000000, 0.000000000000000000, 80.00000000000000000 ) ) ;
#225 = CARTESIAN_POINT ( 'NONE',  ( 9.000000000000000000, 0.000000000000000000, 0.000000000000000000 ) ) ;
#226 = DIRECTION ( 'NONE',  ( 1.000000000000000000, 0.000000000000000000, 0.000000000000000000 ) ) ;
#227 = ADVANCED_FACE ( 'NONE', ( #207 ), #34, .T. ) ;
#228 =( LENGTH_UNIT ( ) NAMED_UNIT ( * ) SI_UNIT ( .MILLI., .METRE. ) );
#229 = VERTEX_POINT ( 'NONE', #107 ) ;
#230 = AXIS2_PLACEMENT_3D ( 'NONE', #224, #328, #226 ) ;
#231 = CARTESIAN_POINT ( 'NONE',  ( 0.000000000000000000, 0.000000000000000000, 40.00000000000000000 ) ) ;
#232 = APPROVAL ( #314, 'UNSPECIFIED' ) ;
#233 = ORIENTED_EDGE ( 'NONE', *, *, #255, .F. ) ;
#234 = APPLICATION_PROTOCOL_DEFINITION ( 'international standard', 'config_control_design', 1994, #299 ) ;
#235 = ORIENTED_EDGE ( 'NONE', *, *, #174, .T. ) ;
#236 = DIRECTION ( 'NONE',  ( 1.000000000000000000, 0.000000000000000000, 0.000000000000000000 ) ) ;
#237 = FACE_OUTER_BOUND ( 'NONE', #329, .T. ) ;
#238 = EDGE_CURVE ( 'NONE', #149, #258, #285, .T. ) ;
#239 = DATE_AND_TIME ( #208, #318 ) ;
#240 = DIRECTION ( 'NONE',  ( 0.000000000000000000, 0.000000000000000000, 1.000000000000000000 ) ) ;
#241 = AXIS2_PLACEMENT_3D ( 'NONE', #127, #150, #300 ) ;
#242 = PRODUCT_DEFINITION_FORMATION_WITH_SPECIFIED_SOURCE ( 'ANY', '', #263, .NOT_KNOWN. ) ;
#243 = PERSON_AND_ORGANIZATION ( #46, #44 ) ;
#244 = CARTESIAN_POINT ( 'NONE',  ( 0.000000000000000000, 0.000000000000000000, 80.00000000000000000 ) ) ;
#245 = CALENDAR_DATE ( 2021, 25, 10 ) ;
#246 = EDGE_CURVE ( 'NONE', #160, #79, #247, .T. ) ;
#247 = CIRCLE ( 'NONE', #192, 13.00000000000000000 ) ;
#248 = VERTEX_POINT ( 'NONE', #161 ) ;
#249 = CC_DESIGN_SECURITY_CLASSIFICATION ( #72, ( #242 ) ) ;
#250 = VECTOR ( 'NONE', #35, 1000.000000000000000 ) ;
#251 = FACE_BOUND ( 'NONE', #85, .T. ) ;
#252 = CARTESIAN_POINT ( 'NONE',  ( 0.000000000000000000, 0.000000000000000000, 40.00000000000000000 ) ) ;
#253 = AXIS2_PLACEMENT_3D ( 'NONE', #134, #91, #68 ) ;
#254 = DIRECTION ( 'NONE',  ( 1.000000000000000000, 0.000000000000000000, 0.000000000000000000 ) ) ;
#255 = EDGE_CURVE ( 'NONE', #284, #79, #59, .T. ) ;
#256 = ORIENTED_EDGE ( 'NONE', *, *, #216, .F. ) ;
#257 = CC_DESIGN_PERSON_AND_ORGANIZATION_ASSIGNMENT ( #136, #63, ( #72 ) ) ;
#258 = VERTEX_POINT ( 'NONE', #259 ) ;
#259 = CARTESIAN_POINT ( 'NONE',  ( 9.000000000000000000, 0.000000000000000000, 35.00000000000000000 ) ) ;
#260 = LOCAL_TIME ( 8, 51, 42.00000000000000000, #67 ) ;
#261 = ORIENTED_EDGE ( 'NONE', *, *, #294, .F. ) ;
#262 = CARTESIAN_POINT ( 'NONE',  ( 25.00000000000000000, 0.000000000000000000, 80.00000000000000000 ) ) ;
#263 = PRODUCT ( 'bj300-16080', 'bj300-16080', '', ( #223 ) ) ;
#264 = CARTESIAN_POINT ( 'NONE',  ( -13.00000000000000000, 1.592040838891559095E-15, 40.00000000000000000 ) ) ;
#265 = CC_DESIGN_DATE_AND_TIME_ASSIGNMENT ( #287, #291, ( #303 ) ) ;
#266 = PERSON_AND_ORGANIZATION ( #46, #44 ) ;
#267 = FACE_OUTER_BOUND ( 'NONE', #20, .T. ) ;
#268 =( GEOMETRIC_REPRESENTATION_CONTEXT ( 3 ) GLOBAL_UNCERTAINTY_ASSIGNED_CONTEXT ( ( #270 ) ) GLOBAL_UNIT_ASSIGNED_CONTEXT ( ( #228, #201, #76 ) ) REPRESENTATION_CONTEXT ( 'NONE', 'WORKASPACE' ) );
#269 = PERSON_AND_ORGANIZATION ( #46, #44 ) ;
#270 = UNCERTAINTY_MEASURE_WITH_UNIT (LENGTH_MEASURE( 1.000000000000000082E-05 ), #228, 'distance_accuracy_value', 'NONE');
#271 = CALENDAR_DATE ( 2021, 25, 10 ) ;
#272 = CIRCLE ( 'NONE', #38, 25.00000000000000000 ) ;
#273 = VECTOR ( 'NONE', #292, 1000.000000000000000 ) ;
#274 = EDGE_CURVE ( 'NONE', #229, #55, #8, .T. ) ;
#275 = PLANE ( 'NONE',  #43 ) ;
#276 = FACE_OUTER_BOUND ( 'NONE', #109, .T. ) ;
#277 = ADVANCED_FACE ( 'NONE', ( #140, #11 ), #212, .F. ) ;
#278 = AXIS2_PLACEMENT_3D ( 'NONE', #144, #306, #37 ) ;
#279 = LOCAL_TIME ( 8, 51, 42.00000000000000000, #170 ) ;
#280 = LINE ( 'NONE', #52, #141 ) ;
#281 = ORIENTED_EDGE ( 'NONE', *, *, #315, .T. ) ;
#282 = APPROVAL ( #181, 'UNSPECIFIED' ) ;
#283 = ORIENTED_EDGE ( 'NONE', *, *, #113, .F. ) ;
#284 = VERTEX_POINT ( 'NONE', #325 ) ;
#285 = LINE ( 'NONE', #209, #105 ) ;
#286 = ORIENTED_EDGE ( 'NONE', *, *, #32, .T. ) ;
#287 = DATE_AND_TIME ( #271, #260 ) ;
#288 = AXIS2_PLACEMENT_3D ( 'NONE', #155, #54, #321 ) ;
#289 = CC_DESIGN_PERSON_AND_ORGANIZATION_ASSIGNMENT ( #139, #39, ( #263 ) ) ;
#290 = DIRECTION ( 'NONE',  ( 0.000000000000000000, 0.000000000000000000, 1.000000000000000000 ) ) ;
#291 = DATE_TIME_ROLE ( 'creation_date' ) ;
#292 = DIRECTION ( 'NONE',  ( 0.000000000000000000, 0.000000000000000000, 1.000000000000000000 ) ) ;
#293 = CARTESIAN_POINT ( 'NONE',  ( 0.000000000000000000, 0.000000000000000000, 0.000000000000000000 ) ) ;
#294 = EDGE_CURVE ( 'NONE', #194, #205, #327, .T. ) ;
#295 = AXIS2_PLACEMENT_3D ( 'NONE', #121, #51, #222 ) ;
#296 = APPROVAL ( #70, 'UNSPECIFIED' ) ;
#297 = CC_DESIGN_PERSON_AND_ORGANIZATION_ASSIGNMENT ( #166, #110, ( #242 ) ) ;
#298 = DIRECTION ( 'NONE',  ( 0.000000000000000000, 0.000000000000000000, 1.000000000000000000 ) ) ;
#299 = APPLICATION_CONTEXT ( 'configuration controlled 3d designs of mechanical parts and assemblies' ) ;
#300 = DIRECTION ( 'NONE',  ( 1.000000000000000000, 0.000000000000000000, 0.000000000000000000 ) ) ;
#301 = FACE_OUTER_BOUND ( 'NONE', #219, .T. ) ;
#302 = DIRECTION ( 'NONE',  ( 0.000000000000000000, 0.000000000000000000, -1.000000000000000000 ) ) ;
#303 = PRODUCT_DEFINITION ( 'UNKNOWN', '', #242, #17 ) ;
#304 = ORIENTED_EDGE ( 'NONE', *, *, #138, .F. ) ;
#305 = ORIENTED_EDGE ( 'NONE', *, *, #50, .T. ) ;
#306 = DIRECTION ( 'NONE',  ( 0.000000000000000000, 0.000000000000000000, 1.000000000000000000 ) ) ;
#307 = EDGE_LOOP ( 'NONE', ( #83, #6, #235, #30 ) ) ;
#308 = ORIENTED_EDGE ( 'NONE', *, *, #103, .T. ) ;
#309 = DATE_TIME_ROLE ( 'classification_date' ) ;
#310 = DIRECTION ( 'NONE',  ( 1.000000000000000000, 0.000000000000000000, 0.000000000000000000 ) ) ;
#311 = APPROVAL_DATE_TIME ( #7, #232 ) ;
#312 = DIRECTION ( 'NONE',  ( 0.000000000000000000, 0.000000000000000000, 1.000000000000000000 ) ) ;
#313 = CIRCLE ( 'NONE', #253, 9.000000000000000000 ) ;
#314 = APPROVAL_STATUS ( 'not_yet_approved' ) ;
#315 = EDGE_CURVE ( 'NONE', #176, #55, #31, .T. ) ;
#316 = APPROVAL_ROLE ( '' ) ;
#317 = CARTESIAN_POINT ( 'NONE',  ( -9.000000000000000000, 1.102182119232617714E-15, 35.00000000000000000 ) ) ;
#318 = LOCAL_TIME ( 8, 51, 42.00000000000000000, #14 ) ;
#319 = CIRCLE ( 'NONE', #220, 9.000000000000000000 ) ;
#320 = EDGE_CURVE ( 'NONE', #248, #284, #152, .T. ) ;
#321 = DIRECTION ( 'NONE',  ( 1.000000000000000000, 0.000000000000000000, 0.000000000000000000 ) ) ;
#322 = ORIENTED_EDGE ( 'NONE', *, *, #32, .F. ) ;
#323 = AXIS2_PLACEMENT_3D ( 'NONE', #115, #240, #310 ) ;
#324 = CC_DESIGN_APPROVAL ( #296, ( #72 ) ) ;
#325 = CARTESIAN_POINT ( 'NONE',  ( -13.00000000000000000, 1.592040838891559095E-15, 35.00000000000000000 ) ) ;
#326 = CARTESIAN_POINT ( 'NONE',  ( 0.000000000000000000, 0.000000000000000000, 80.00000000000000000 ) ) ;
#327 = LINE ( 'NONE', #129, #97 ) ;
#328 = DIRECTION ( 'NONE',  ( 0.000000000000000000, 0.000000000000000000, 1.000000000000000000 ) ) ;
#329 = EDGE_LOOP ( 'NONE', ( #286, #29, #133, #202 ) ) ;
ENDSEC;
END-ISO-10303-21;
