ISO-10303-21;
HEADER;
FILE_DESCRIPTION (( 'STEP AP203' ),
    '1' );
FILE_NAME ('bj401-06001.STEP',
    '2021-10-24T23:52:25',
    ( '' ),
    ( '' ),
    'SwSTEP 2.0',
    'SolidWorks 2020',
    '' );
FILE_SCHEMA (( 'CONFIG_CONTROL_DESIGN' ));
ENDSEC;

DATA;
#1 = ADVANCED_FACE ( 'NONE', ( #333 ), #393, .T. ) ;
#2 = CIRCLE ( 'NONE', #354, 3.299999999999999822 ) ;
#3 = ORIENTED_EDGE ( 'NONE', *, *, #112, .F. ) ;
#4 = APPROVAL_STATUS ( 'not_yet_approved' ) ;
#5 = CARTESIAN_POINT ( 'NONE',  ( -10.00000000000000000, 1.224646799147353256E-15, 15.00000000000000000 ) ) ;
#6 = CYLINDRICAL_SURFACE ( 'NONE', #21, 3.299999999999999822 ) ;
#7 = DIRECTION ( 'NONE',  ( 0.000000000000000000, 0.000000000000000000, 1.000000000000000000 ) ) ;
#8 = AXIS2_PLACEMENT_3D ( 'NONE', #221, #60, #403 ) ;
#9 = VECTOR ( 'NONE', #114, 1000.000000000000000 ) ;
#10 = EDGE_CURVE ( 'NONE', #252, #183, #383, .T. ) ;
#11 = DIRECTION ( 'NONE',  ( 1.000000000000000000, 0.000000000000000000, 0.000000000000000000 ) ) ;
#12 = ORIENTED_EDGE ( 'NONE', *, *, #170, .F. ) ;
#13 = CC_DESIGN_APPROVAL ( #15, ( #217 ) ) ;
#14 = CARTESIAN_POINT ( 'NONE',  ( 0.000000000000000000, 0.000000000000000000, 0.000000000000000000 ) ) ;
#15 = APPROVAL ( #4, 'UNSPECIFIED' ) ;
#16 = DIRECTION ( 'NONE',  ( 1.000000000000000000, 0.000000000000000000, 0.000000000000000000 ) ) ;
#17 = CARTESIAN_POINT ( 'NONE',  ( 0.000000000000000000, 0.000000000000000000, -10.00000000000000000 ) ) ;
#18 = ORIENTED_EDGE ( 'NONE', *, *, #45, .T. ) ;
#19 = DIRECTION ( 'NONE',  ( 0.000000000000000000, 0.000000000000000000, -1.000000000000000000 ) ) ;
#20 = ORIENTED_EDGE ( 'NONE', *, *, #155, .T. ) ;
#21 = AXIS2_PLACEMENT_3D ( 'NONE', #320, #164, #293 ) ;
#22 = FACE_OUTER_BOUND ( 'NONE', #24, .T. ) ;
#23 = DIRECTION ( 'NONE',  ( 0.000000000000000000, 0.000000000000000000, 1.000000000000000000 ) ) ;
#24 = EDGE_LOOP ( 'NONE', ( #206, #315, #82, #186 ) ) ;
#25 = CALENDAR_DATE ( 2021, 25, 10 ) ;
#26 = FACE_BOUND ( 'NONE', #48, .T. ) ;
#27 = APPROVAL_DATE_TIME ( #98, #382 ) ;
#28 = AXIS2_PLACEMENT_3D ( 'NONE', #345, #19, #342 ) ;
#29 = CYLINDRICAL_SURFACE ( 'NONE', #113, 5.500000000000000000 ) ;
#30 = ORIENTED_EDGE ( 'NONE', *, *, #277, .F. ) ;
#31 = COORDINATED_UNIVERSAL_TIME_OFFSET ( 9, 0, .AHEAD. ) ;
#32 = CARTESIAN_POINT ( 'NONE',  ( 7.500000000000000000, 0.000000000000000000, -10.00000000000000000 ) ) ;
#33 = VERTEX_POINT ( 'NONE', #210 ) ;
#34 = ADVANCED_FACE ( 'NONE', ( #115 ), #205, .T. ) ;
#35 = DATE_AND_TIME ( #25, #219 ) ;
#36 = PLANE ( 'NONE',  #176 ) ;
#37 = CALENDAR_DATE ( 2021, 25, 10 ) ;
#38 = APPROVAL_PERSON_ORGANIZATION ( #378, #382, #319 ) ;
#39 = DIRECTION ( 'NONE',  ( 0.000000000000000000, 0.000000000000000000, 1.000000000000000000 ) ) ;
#40 = DESIGN_CONTEXT ( 'detailed design', #306, 'design' ) ;
#41 = DIRECTION ( 'NONE',  ( 0.000000000000000000, 0.000000000000000000, 1.000000000000000000 ) ) ;
#42 = CC_DESIGN_SECURITY_CLASSIFICATION ( #228, ( #249 ) ) ;
#43 = CARTESIAN_POINT ( 'NONE',  ( 0.000000000000000000, 0.000000000000000000, 15.00000000000000000 ) ) ;
#44 = ORIENTED_EDGE ( 'NONE', *, *, #282, .T. ) ;
#45 = EDGE_CURVE ( 'NONE', #192, #75, #240, .T. ) ;
#46 = CARTESIAN_POINT ( 'NONE',  ( 0.000000000000000000, 0.000000000000000000, 15.00000000000000000 ) ) ;
#47 = DIRECTION ( 'NONE',  ( 0.000000000000000000, 0.000000000000000000, 1.000000000000000000 ) ) ;
#48 = EDGE_LOOP ( 'NONE', ( #395, #151 ) ) ;
#49 = CC_DESIGN_PERSON_AND_ORGANIZATION_ASSIGNMENT ( #125, #168, ( #217 ) ) ;
#50 = ORIENTED_EDGE ( 'NONE', *, *, #209, .T. ) ;
#51 = CC_DESIGN_PERSON_AND_ORGANIZATION_ASSIGNMENT ( #284, #166, ( #228 ) ) ;
#52 = EDGE_LOOP ( 'NONE', ( #359, #95 ) ) ;
#53 = CIRCLE ( 'NONE', #339, 5.500000000000000000 ) ;
#54 = DIRECTION ( 'NONE',  ( 0.000000000000000000, 0.000000000000000000, 1.000000000000000000 ) ) ;
#55 = EDGE_CURVE ( 'NONE', #343, #208, #402, .T. ) ;
#56 = COORDINATED_UNIVERSAL_TIME_OFFSET ( 9, 0, .AHEAD. ) ;
#57 = FACE_OUTER_BOUND ( 'NONE', #64, .T. ) ;
#58 = EDGE_LOOP ( 'NONE', ( #376, #103, #245, #12 ) ) ;
#59 = PERSON_AND_ORGANIZATION ( #100, #74 ) ;
#60 = DIRECTION ( 'NONE',  ( 0.000000000000000000, 0.000000000000000000, 1.000000000000000000 ) ) ;
#61 = PERSON_AND_ORGANIZATION_ROLE ( 'design_supplier' ) ;
#62 = VECTOR ( 'NONE', #273, 1000.000000000000000 ) ;
#63 = DIRECTION ( 'NONE',  ( 1.000000000000000000, 0.000000000000000000, 0.000000000000000000 ) ) ;
#64 = EDGE_LOOP ( 'NONE', ( #158, #363 ) ) ;
#65 = CARTESIAN_POINT ( 'NONE',  ( 7.500000000000000000, 0.000000000000000000, 0.000000000000000000 ) ) ;
#66 = CLOSED_SHELL ( 'NONE', ( #73, #34, #297, #243, #139, #87, #124, #278, #153, #78, #181, #1 ) ) ;
#67 = CC_DESIGN_APPROVAL ( #296, ( #228 ) ) ;
#68 = DIRECTION ( 'NONE',  ( 1.000000000000000000, 0.000000000000000000, 0.000000000000000000 ) ) ;
#69 = PRODUCT_RELATED_PRODUCT_CATEGORY ( 'detail', '', ( #318 ) ) ;
#70 =( NAMED_UNIT ( * ) PLANE_ANGLE_UNIT ( ) SI_UNIT ( $, .RADIAN. ) );
#71 = VECTOR ( 'NONE', #132, 1000.000000000000000 ) ;
#72 = DIRECTION ( 'NONE',  ( 0.000000000000000000, 0.000000000000000000, 1.000000000000000000 ) ) ;
#73 = ADVANCED_FACE ( 'NONE', ( #317 ), #187, .T. ) ;
#74 = ORGANIZATION ( 'UNSPECIFIED', 'UNSPECIFIED', '' ) ;
#75 = VERTEX_POINT ( 'NONE', #313 ) ;
#76 = DIRECTION ( 'NONE',  ( 0.000000000000000000, 0.000000000000000000, 1.000000000000000000 ) ) ;
#77 = CC_DESIGN_DATE_AND_TIME_ASSIGNMENT ( #35, #280, ( #217 ) ) ;
#78 = ADVANCED_FACE ( 'NONE', ( #275 ), #281, .T. ) ;
#79 = CARTESIAN_POINT ( 'NONE',  ( 0.000000000000000000, 0.000000000000000000, 0.000000000000000000 ) ) ;
#80 = CARTESIAN_POINT ( 'NONE',  ( 0.000000000000000000, 0.000000000000000000, 8.000000000000000000 ) ) ;
#81 = AXIS2_PLACEMENT_3D ( 'NONE', #123, #54, #401 ) ;
#82 = ORIENTED_EDGE ( 'NONE', *, *, #407, .T. ) ;
#83 = CIRCLE ( 'NONE', #171, 10.00000000000000000 ) ;
#84 = DIRECTION ( 'NONE',  ( 1.000000000000000000, 0.000000000000000000, 0.000000000000000000 ) ) ;
#85 = FACE_BOUND ( 'NONE', #272, .T. ) ;
#86 = ORIENTED_EDGE ( 'NONE', *, *, #112, .T. ) ;
#87 = ADVANCED_FACE ( 'NONE', ( #22 ), #29, .F. ) ;
#88 = PLANE ( 'NONE',  #259 ) ;
#89 = EDGE_CURVE ( 'NONE', #33, #97, #105, .T. ) ;
#90 = VERTEX_POINT ( 'NONE', #154 ) ;
#91 = CIRCLE ( 'NONE', #310, 3.299999999999999822 ) ;
#92 = APPROVAL_DATE_TIME ( #366, #296 ) ;
#93 = ORIENTED_EDGE ( 'NONE', *, *, #312, .F. ) ;
#94 = CARTESIAN_POINT ( 'NONE',  ( 0.000000000000000000, 0.000000000000000000, -10.00000000000000000 ) ) ;
#95 = ORIENTED_EDGE ( 'NONE', *, *, #387, .F. ) ;
#96 = DIRECTION ( 'NONE',  ( 0.000000000000000000, 0.000000000000000000, 1.000000000000000000 ) ) ;
#97 = VERTEX_POINT ( 'NONE', #128 ) ;
#98 = DATE_AND_TIME ( #250, #325 ) ;
#99 = LINE ( 'NONE', #203, #360 ) ;
#100 = PERSON ( 'UNSPECIFIED', 'UNSPECIFIED', 'UNSPECIFIED', ('UNSPECIFIED'), ('UNSPECIFIED'), ('UNSPECIFIED') ) ;
#101 = CALENDAR_DATE ( 2021, 25, 10 ) ;
#102 = CARTESIAN_POINT ( 'NONE',  ( -3.299999999999999822, 4.041334437186265510E-16, 20.00000000000000000 ) ) ;
#103 = ORIENTED_EDGE ( 'NONE', *, *, #387, .T. ) ;
#104 = DIRECTION ( 'NONE',  ( 0.000000000000000000, 0.000000000000000000, 1.000000000000000000 ) ) ;
#105 = CIRCLE ( 'NONE', #336, 5.500000000000000000 ) ;
#106 = DIRECTION ( 'NONE',  ( 0.000000000000000000, 0.000000000000000000, 1.000000000000000000 ) ) ;
#107 = LOCAL_TIME ( 8, 52, 25.00000000000000000, #323 ) ;
#108 = EDGE_CURVE ( 'NONE', #238, #286, #204, .T. ) ;
#109 = FACE_OUTER_BOUND ( 'NONE', #52, .T. ) ;
#110 = DIRECTION ( 'NONE',  ( 0.000000000000000000, 0.000000000000000000, 1.000000000000000000 ) ) ;
#111 = CC_DESIGN_PERSON_AND_ORGANIZATION_ASSIGNMENT ( #59, #137, ( #249 ) ) ;
#112 = EDGE_CURVE ( 'NONE', #208, #399, #340, .T. ) ;
#113 = AXIS2_PLACEMENT_3D ( 'NONE', #157, #96, #127 ) ;
#114 = DIRECTION ( 'NONE',  ( 0.000000000000000000, 0.000000000000000000, 1.000000000000000000 ) ) ;
#115 = FACE_OUTER_BOUND ( 'NONE', #380, .T. ) ;
#116 = CARTESIAN_POINT ( 'NONE',  ( 3.299999999999999822, 0.000000000000000000, 8.000000000000000000 ) ) ;
#117 = VECTOR ( 'NONE', #23, 1000.000000000000000 ) ;
#118 = AXIS2_PLACEMENT_3D ( 'NONE', #43, #207, #212 ) ;
#119 = EDGE_LOOP ( 'NONE', ( #291, #50, #266, #122 ) ) ;
#120 = CARTESIAN_POINT ( 'NONE',  ( 0.000000000000000000, 0.000000000000000000, 8.000000000000000000 ) ) ;
#121 = DIRECTION ( 'NONE',  ( 0.000000000000000000, 0.000000000000000000, 1.000000000000000000 ) ) ;
#122 = ORIENTED_EDGE ( 'NONE', *, *, #407, .F. ) ;
#123 = CARTESIAN_POINT ( 'NONE',  ( 0.000000000000000000, 0.000000000000000000, 20.00000000000000000 ) ) ;
#124 = ADVANCED_FACE ( 'NONE', ( #371, #405 ), #88, .F. ) ;
#125 = PERSON_AND_ORGANIZATION ( #100, #74 ) ;
#126 = CIRCLE ( 'NONE', #135, 5.500000000000000000 ) ;
#127 = DIRECTION ( 'NONE',  ( 1.000000000000000000, 0.000000000000000000, 0.000000000000000000 ) ) ;
#128 = CARTESIAN_POINT ( 'NONE',  ( -5.500000000000000000, 6.735557395310442023E-16, 8.000000000000000000 ) ) ;
#129 = EDGE_LOOP ( 'NONE', ( #165, #30, #86, #156 ) ) ;
#130 = PERSON_AND_ORGANIZATION ( #100, #74 ) ;
#131 = CC_DESIGN_PERSON_AND_ORGANIZATION_ASSIGNMENT ( #322, #61, ( #249 ) ) ;
#132 = DIRECTION ( 'NONE',  ( 0.000000000000000000, 0.000000000000000000, 1.000000000000000000 ) ) ;
#133 = DATE_AND_TIME ( #101, #347 ) ;
#134 = AXIS2_PLACEMENT_3D ( 'NONE', #216, #39, #391 ) ;
#135 = AXIS2_PLACEMENT_3D ( 'NONE', #195, #326, #174 ) ;
#136 = VERTEX_POINT ( 'NONE', #248 ) ;
#137 = PERSON_AND_ORGANIZATION_ROLE ( 'creator' ) ;
#138 = LINE ( 'NONE', #172, #71 ) ;
#139 = ADVANCED_FACE ( 'NONE', ( #85, #255 ), #375, .F. ) ;
#140 = VECTOR ( 'NONE', #269, 1000.000000000000000 ) ;
#141 = CARTESIAN_POINT ( 'NONE',  ( 0.000000000000000000, 0.000000000000000000, 0.000000000000000000 ) ) ;
#142 = DIRECTION ( 'NONE',  ( 1.000000000000000000, 0.000000000000000000, 0.000000000000000000 ) ) ;
#143 =( NAMED_UNIT ( * ) SI_UNIT ( $, .STERADIAN. ) SOLID_ANGLE_UNIT ( ) );
#144 = CARTESIAN_POINT ( 'NONE',  ( 5.500000000000000000, 0.000000000000000000, 20.00000000000000000 ) ) ;
#145 = LOCAL_TIME ( 8, 52, 25.00000000000000000, #31 ) ;
#146 = ORIENTED_EDGE ( 'NONE', *, *, #327, .T. ) ;
#147 = LINE ( 'NONE', #144, #140 ) ;
#148 = DIRECTION ( 'NONE',  ( 1.000000000000000000, 0.000000000000000000, 0.000000000000000000 ) ) ;
#149 = ORIENTED_EDGE ( 'NONE', *, *, #351, .F. ) ;
#150 = DIRECTION ( 'NONE',  ( 0.000000000000000000, 0.000000000000000000, 1.000000000000000000 ) ) ;
#151 = ORIENTED_EDGE ( 'NONE', *, *, #55, .T. ) ;
#152 = CARTESIAN_POINT ( 'NONE',  ( -10.00000000000000000, 1.224646799147353256E-15, 20.00000000000000000 ) ) ;
#153 = ADVANCED_FACE ( 'NONE', ( #57, #26 ), #194, .F. ) ;
#154 = CARTESIAN_POINT ( 'NONE',  ( 5.500000000000000000, 0.000000000000000000, 15.00000000000000000 ) ) ;
#155 = EDGE_CURVE ( 'NONE', #75, #246, #307, .T. ) ;
#156 = ORIENTED_EDGE ( 'NONE', *, *, #355, .T. ) ;
#157 = CARTESIAN_POINT ( 'NONE',  ( 0.000000000000000000, 0.000000000000000000, 20.00000000000000000 ) ) ;
#158 = ORIENTED_EDGE ( 'NONE', *, *, #108, .F. ) ;
#159 = AXIS2_PLACEMENT_3D ( 'NONE', #17, #121, #400 ) ;
#160 = PERSON_AND_ORGANIZATION ( #100, #74 ) ;
#161 = DIRECTION ( 'NONE',  ( 0.000000000000000000, 0.000000000000000000, 1.000000000000000000 ) ) ;
#162 = EDGE_LOOP ( 'NONE', ( #299, #256 ) ) ;
#163 = DATE_AND_TIME ( #381, #145 ) ;
#164 = DIRECTION ( 'NONE',  ( 0.000000000000000000, 0.000000000000000000, 1.000000000000000000 ) ) ;
#165 = ORIENTED_EDGE ( 'NONE', *, *, #232, .F. ) ;
#166 = PERSON_AND_ORGANIZATION_ROLE ( 'classification_officer' ) ;
#167 = CARTESIAN_POINT ( 'NONE',  ( 10.00000000000000000, 0.000000000000000000, 0.000000000000000000 ) ) ;
#168 = PERSON_AND_ORGANIZATION_ROLE ( 'creator' ) ;
#169 = AXIS2_PLACEMENT_3D ( 'NONE', #200, #106, #175 ) ;
#170 = EDGE_CURVE ( 'NONE', #246, #136, #346, .T. ) ;
#171 = AXIS2_PLACEMENT_3D ( 'NONE', #298, #76, #398 ) ;
#172 = CARTESIAN_POINT ( 'NONE',  ( 10.00000000000000000, 0.000000000000000000, 20.00000000000000000 ) ) ;
#173 = CC_DESIGN_DATE_AND_TIME_ASSIGNMENT ( #163, #349, ( #228 ) ) ;
#174 = DIRECTION ( 'NONE',  ( 1.000000000000000000, 0.000000000000000000, 0.000000000000000000 ) ) ;
#175 = DIRECTION ( 'NONE',  ( 1.000000000000000000, 0.000000000000000000, 0.000000000000000000 ) ) ;
#176 = AXIS2_PLACEMENT_3D ( 'NONE', #65, #7, #235 ) ;
#177 = AXIS2_PLACEMENT_3D ( 'NONE', #141, #184, #264 ) ;
#178 = DIRECTION ( 'NONE',  ( 0.000000000000000000, 0.000000000000000000, 1.000000000000000000 ) ) ;
#179 = CARTESIAN_POINT ( 'NONE',  ( 0.000000000000000000, 0.000000000000000000, 0.000000000000000000 ) ) ;
#180 = DIRECTION ( 'NONE',  ( 1.000000000000000000, 0.000000000000000000, 0.000000000000000000 ) ) ;
#181 = ADVANCED_FACE ( 'NONE', ( #109, #348 ), #36, .F. ) ;
#182 = DIRECTION ( 'NONE',  ( 0.000000000000000000, 0.000000000000000000, 1.000000000000000000 ) ) ;
#183 = VERTEX_POINT ( 'NONE', #263 ) ;
#184 = DIRECTION ( 'NONE',  ( 0.000000000000000000, 0.000000000000000000, 1.000000000000000000 ) ) ;
#185 = CARTESIAN_POINT ( 'NONE',  ( 0.000000000000000000, 0.000000000000000000, 20.00000000000000000 ) ) ;
#186 = ORIENTED_EDGE ( 'NONE', *, *, #365, .T. ) ;
#187 = CYLINDRICAL_SURFACE ( 'NONE', #8, 10.00000000000000000 ) ;
#188 = VECTOR ( 'NONE', #41, 1000.000000000000000 ) ;
#189 = CIRCLE ( 'NONE', #283, 7.500000000000000000 ) ;
#190 = ORIENTED_EDGE ( 'NONE', *, *, #365, .F. ) ;
#191 = SHAPE_DEFINITION_REPRESENTATION ( #254, #218 ) ;
#192 = VERTEX_POINT ( 'NONE', #167 ) ;
#193 = SECURITY_CLASSIFICATION_LEVEL ( 'unclassified' ) ;
#194 = PLANE ( 'NONE',  #316 ) ;
#195 = CARTESIAN_POINT ( 'NONE',  ( 0.000000000000000000, 0.000000000000000000, 8.000000000000000000 ) ) ;
#196 = VERTEX_POINT ( 'NONE', #328 ) ;
#197 = APPROVAL_STATUS ( 'not_yet_approved' ) ;
#198 = EDGE_CURVE ( 'NONE', #192, #136, #138, .T. ) ;
#199 = APPROVAL_ROLE ( '' ) ;
#200 = CARTESIAN_POINT ( 'NONE',  ( 0.000000000000000000, 0.000000000000000000, 20.00000000000000000 ) ) ;
#201 = AXIS2_PLACEMENT_3D ( 'NONE', #14, #110, #11 ) ;
#202 = DIRECTION ( 'NONE',  ( 0.000000000000000000, 0.000000000000000000, 1.000000000000000000 ) ) ;
#203 = CARTESIAN_POINT ( 'NONE',  ( -5.500000000000000000, 6.735557395310442023E-16, 20.00000000000000000 ) ) ;
#204 = CIRCLE ( 'NONE', #294, 7.500000000000000000 ) ;
#205 = CYLINDRICAL_SURFACE ( 'NONE', #234, 7.500000000000000000 ) ;
#206 = ORIENTED_EDGE ( 'NONE', *, *, #209, .F. ) ;
#207 = DIRECTION ( 'NONE',  ( 0.000000000000000000, 0.000000000000000000, 1.000000000000000000 ) ) ;
#208 = VERTEX_POINT ( 'NONE', #288 ) ;
#209 = EDGE_CURVE ( 'NONE', #97, #368, #99, .T. ) ;
#210 = CARTESIAN_POINT ( 'NONE',  ( 5.500000000000000000, 0.000000000000000000, 8.000000000000000000 ) ) ;
#211 = ORIENTED_EDGE ( 'NONE', *, *, #330, .T. ) ;
#212 = DIRECTION ( 'NONE',  ( 1.000000000000000000, 0.000000000000000000, 0.000000000000000000 ) ) ;
#213 = DIRECTION ( 'NONE',  ( 0.000000000000000000, 0.000000000000000000, 1.000000000000000000 ) ) ;
#214 = CC_DESIGN_APPROVAL ( #382, ( #249 ) ) ;
#215 = EDGE_LOOP ( 'NONE', ( #276, #406 ) ) ;
#216 = CARTESIAN_POINT ( 'NONE',  ( 0.000000000000000000, 0.000000000000000000, 15.00000000000000000 ) ) ;
#217 = PRODUCT_DEFINITION ( 'UNKNOWN', '', #249, #40 ) ;
#218 = ADVANCED_BREP_SHAPE_REPRESENTATION ( 'bj401-06001', ( #335, #177 ), #300 ) ;
#219 = LOCAL_TIME ( 8, 52, 25.00000000000000000, #257 ) ;
#220 = ORIENTED_EDGE ( 'NONE', *, *, #55, .F. ) ;
#221 = CARTESIAN_POINT ( 'NONE',  ( 0.000000000000000000, 0.000000000000000000, 20.00000000000000000 ) ) ;
#222 = ORIENTED_EDGE ( 'NONE', *, *, #108, .T. ) ;
#223 = DIRECTION ( 'NONE',  ( 0.000000000000000000, 0.000000000000000000, -1.000000000000000000 ) ) ;
#224 = ORIENTED_EDGE ( 'NONE', *, *, #198, .F. ) ;
#225 = DIRECTION ( 'NONE',  ( 0.000000000000000000, 0.000000000000000000, 1.000000000000000000 ) ) ;
#226 = ORIENTED_EDGE ( 'NONE', *, *, #244, .F. ) ;
#227 = AXIS2_PLACEMENT_3D ( 'NONE', #79, #72, #84 ) ;
#228 = SECURITY_CLASSIFICATION ( '', '', #193 ) ;
#229 = EDGE_CURVE ( 'NONE', #238, #252, #258, .T. ) ;
#230 = COORDINATED_UNIVERSAL_TIME_OFFSET ( 9, 0, .AHEAD. ) ;
#231 = FACE_OUTER_BOUND ( 'NONE', #119, .T. ) ;
#232 = EDGE_CURVE ( 'NONE', #343, #196, #386, .T. ) ;
#233 = FACE_OUTER_BOUND ( 'NONE', #129, .T. ) ;
#234 = AXIS2_PLACEMENT_3D ( 'NONE', #185, #213, #142 ) ;
#235 = DIRECTION ( 'NONE',  ( 1.000000000000000000, 0.000000000000000000, 0.000000000000000000 ) ) ;
#236 = DIRECTION ( 'NONE',  ( 1.000000000000000000, 0.000000000000000000, 0.000000000000000000 ) ) ;
#237 = CARTESIAN_POINT ( 'NONE',  ( -7.500000000000000000, 9.184850993605147944E-16, 20.00000000000000000 ) ) ;
#238 = VERTEX_POINT ( 'NONE', #32 ) ;
#239 = APPLICATION_CONTEXT ( 'configuration controlled 3d designs of mechanical parts and assemblies' ) ;
#240 = CIRCLE ( 'NONE', #309, 10.00000000000000000 ) ;
#241 = AXIS2_PLACEMENT_3D ( 'NONE', #80, #361, #180 ) ;
#242 = CARTESIAN_POINT ( 'NONE',  ( 0.000000000000000000, 0.000000000000000000, 8.000000000000000000 ) ) ;
#243 = ADVANCED_FACE ( 'NONE', ( #231 ), #350, .F. ) ;
#244 = EDGE_CURVE ( 'NONE', #136, #246, #338, .T. ) ;
#245 = ORIENTED_EDGE ( 'NONE', *, *, #198, .T. ) ;
#246 = VERTEX_POINT ( 'NONE', #5 ) ;
#247 = DIRECTION ( 'NONE',  ( 0.000000000000000000, 0.000000000000000000, 1.000000000000000000 ) ) ;
#248 = CARTESIAN_POINT ( 'NONE',  ( 10.00000000000000000, 0.000000000000000000, 15.00000000000000000 ) ) ;
#249 = PRODUCT_DEFINITION_FORMATION_WITH_SPECIFIED_SOURCE ( 'ANY', '', #318, .NOT_KNOWN. ) ;
#250 = CALENDAR_DATE ( 2021, 25, 10 ) ;
#251 = CARTESIAN_POINT ( 'NONE',  ( 3.299999999999999822, 0.000000000000000000, 20.00000000000000000 ) ) ;
#252 = VERTEX_POINT ( 'NONE', #388 ) ;
#253 = APPLICATION_PROTOCOL_DEFINITION ( 'international standard', 'config_control_design', 1994, #306 ) ;
#254 = PRODUCT_DEFINITION_SHAPE ( 'NONE', 'NONE',  #217 ) ;
#255 = FACE_OUTER_BOUND ( 'NONE', #162, .T. ) ;
#256 = ORIENTED_EDGE ( 'NONE', *, *, #170, .T. ) ;
#257 = COORDINATED_UNIVERSAL_TIME_OFFSET ( 9, 0, .AHEAD. ) ;
#258 = LINE ( 'NONE', #389, #188 ) ;
#259 = AXIS2_PLACEMENT_3D ( 'NONE', #279, #223, #285 ) ;
#260 = AXIS2_PLACEMENT_3D ( 'NONE', #352, #202, #68 ) ;
#261 = DIRECTION ( 'NONE',  ( 0.000000000000000000, 0.000000000000000000, 1.000000000000000000 ) ) ;
#262 = EDGE_LOOP ( 'NONE', ( #149, #146, #308, #274 ) ) ;
#263 = CARTESIAN_POINT ( 'NONE',  ( -7.500000000000000000, 9.184850993605147944E-16, 0.000000000000000000 ) ) ;
#264 = DIRECTION ( 'NONE',  ( 1.000000000000000000, 0.000000000000000000, 0.000000000000000000 ) ) ;
#265 = PERSON_AND_ORGANIZATION ( #100, #74 ) ;
#266 = ORIENTED_EDGE ( 'NONE', *, *, #312, .T. ) ;
#267 = AXIS2_PLACEMENT_3D ( 'NONE', #324, #290, #409 ) ;
#268 = CIRCLE ( 'NONE', #118, 5.500000000000000000 ) ;
#269 = DIRECTION ( 'NONE',  ( 0.000000000000000000, 0.000000000000000000, 1.000000000000000000 ) ) ;
#270 = ORIENTED_EDGE ( 'NONE', *, *, #229, .F. ) ;
#271 = CARTESIAN_POINT ( 'NONE',  ( -5.500000000000000000, 6.735557395310442023E-16, 15.00000000000000000 ) ) ;
#272 = EDGE_LOOP ( 'NONE', ( #190, #93 ) ) ;
#273 = DIRECTION ( 'NONE',  ( 0.000000000000000000, 0.000000000000000000, 1.000000000000000000 ) ) ;
#274 = ORIENTED_EDGE ( 'NONE', *, *, #397, .F. ) ;
#275 = FACE_OUTER_BOUND ( 'NONE', #262, .T. ) ;
#276 = ORIENTED_EDGE ( 'NONE', *, *, #355, .F. ) ;
#277 = EDGE_CURVE ( 'NONE', #208, #343, #91, .T. ) ;
#278 = ADVANCED_FACE ( 'NONE', ( #233 ), #357, .F. ) ;
#279 = CARTESIAN_POINT ( 'NONE',  ( 5.500000000000000000, 0.000000000000000000, 8.000000000000000000 ) ) ;
#280 = DATE_TIME_ROLE ( 'creation_date' ) ;
#281 = CYLINDRICAL_SURFACE ( 'NONE', #81, 7.500000000000000000 ) ;
#282 = EDGE_CURVE ( 'NONE', #97, #33, #126, .T. ) ;
#283 = AXIS2_PLACEMENT_3D ( 'NONE', #295, #178, #303 ) ;
#284 = PERSON_AND_ORGANIZATION ( #100, #74 ) ;
#285 = DIRECTION ( 'NONE',  ( -1.000000000000000000, 0.000000000000000000, 0.000000000000000000 ) ) ;
#286 = VERTEX_POINT ( 'NONE', #292 ) ;
#287 = DIRECTION ( 'NONE',  ( 0.000000000000000000, 0.000000000000000000, 1.000000000000000000 ) ) ;
#288 = CARTESIAN_POINT ( 'NONE',  ( 3.299999999999999822, 0.000000000000000000, -10.00000000000000000 ) ) ;
#289 = CIRCLE ( 'NONE', #241, 3.299999999999999822 ) ;
#290 = DIRECTION ( 'NONE',  ( 0.000000000000000000, 0.000000000000000000, 1.000000000000000000 ) ) ;
#291 = ORIENTED_EDGE ( 'NONE', *, *, #282, .F. ) ;
#292 = CARTESIAN_POINT ( 'NONE',  ( -7.500000000000000000, 9.184850993605147944E-16, -10.00000000000000000 ) ) ;
#293 = DIRECTION ( 'NONE',  ( 1.000000000000000000, 0.000000000000000000, 0.000000000000000000 ) ) ;
#294 = AXIS2_PLACEMENT_3D ( 'NONE', #94, #161, #314 ) ;
#295 = CARTESIAN_POINT ( 'NONE',  ( 0.000000000000000000, 0.000000000000000000, -10.00000000000000000 ) ) ;
#296 = APPROVAL ( #408, 'UNSPECIFIED' ) ;
#297 = ADVANCED_FACE ( 'NONE', ( #384 ), #6, .F. ) ;
#298 = CARTESIAN_POINT ( 'NONE',  ( 0.000000000000000000, 0.000000000000000000, 0.000000000000000000 ) ) ;
#299 = ORIENTED_EDGE ( 'NONE', *, *, #244, .T. ) ;
#300 =( GEOMETRIC_REPRESENTATION_CONTEXT ( 3 ) GLOBAL_UNCERTAINTY_ASSIGNED_CONTEXT ( ( #390 ) ) GLOBAL_UNIT_ASSIGNED_CONTEXT ( ( #337, #70, #143 ) ) REPRESENTATION_CONTEXT ( 'NONE', 'WORKASPACE' ) );
#301 = LINE ( 'NONE', #237, #9 ) ;
#302 = CARTESIAN_POINT ( 'NONE',  ( 0.000000000000000000, 0.000000000000000000, 20.00000000000000000 ) ) ;
#303 = DIRECTION ( 'NONE',  ( 1.000000000000000000, 0.000000000000000000, 0.000000000000000000 ) ) ;
#304 = DIRECTION ( 'NONE',  ( 1.000000000000000000, 0.000000000000000000, 0.000000000000000000 ) ) ;
#305 = EDGE_LOOP ( 'NONE', ( #367, #44 ) ) ;
#306 = APPLICATION_CONTEXT ( 'configuration controlled 3d designs of mechanical parts and assemblies' ) ;
#307 = LINE ( 'NONE', #152, #62 ) ;
#308 = ORIENTED_EDGE ( 'NONE', *, *, #229, .T. ) ;
#309 = AXIS2_PLACEMENT_3D ( 'NONE', #179, #47, #304 ) ;
#310 = AXIS2_PLACEMENT_3D ( 'NONE', #356, #104, #236 ) ;
#311 = EDGE_LOOP ( 'NONE', ( #18, #20, #226, #224 ) ) ;
#312 = EDGE_CURVE ( 'NONE', #368, #90, #268, .T. ) ;
#313 = CARTESIAN_POINT ( 'NONE',  ( -10.00000000000000000, 1.224646799147353256E-15, 0.000000000000000000 ) ) ;
#314 = DIRECTION ( 'NONE',  ( 1.000000000000000000, 0.000000000000000000, 0.000000000000000000 ) ) ;
#315 = ORIENTED_EDGE ( 'NONE', *, *, #89, .F. ) ;
#316 = AXIS2_PLACEMENT_3D ( 'NONE', #379, #225, #63 ) ;
#317 = FACE_OUTER_BOUND ( 'NONE', #311, .T. ) ;
#318 = PRODUCT ( 'bj401-06001', 'bj401-06001', '', ( #329 ) ) ;
#319 = APPROVAL_ROLE ( '' ) ;
#320 = CARTESIAN_POINT ( 'NONE',  ( 0.000000000000000000, 0.000000000000000000, 20.00000000000000000 ) ) ;
#321 = ORIENTED_EDGE ( 'NONE', *, *, #232, .T. ) ;
#322 = PERSON_AND_ORGANIZATION ( #100, #74 ) ;
#323 = COORDINATED_UNIVERSAL_TIME_OFFSET ( 9, 0, .AHEAD. ) ;
#324 = CARTESIAN_POINT ( 'NONE',  ( 0.000000000000000000, 0.000000000000000000, 15.00000000000000000 ) ) ;
#325 = LOCAL_TIME ( 8, 52, 25.00000000000000000, #230 ) ;
#326 = DIRECTION ( 'NONE',  ( 0.000000000000000000, 0.000000000000000000, 1.000000000000000000 ) ) ;
#327 = EDGE_CURVE ( 'NONE', #286, #238, #189, .T. ) ;
#328 = CARTESIAN_POINT ( 'NONE',  ( -3.299999999999999822, 4.041334437186265510E-16, 8.000000000000000000 ) ) ;
#329 = MECHANICAL_CONTEXT ( 'NONE', #239, 'mechanical' ) ;
#330 = EDGE_CURVE ( 'NONE', #196, #399, #2, .T. ) ;
#331 = ORIENTED_EDGE ( 'NONE', *, *, #10, .F. ) ;
#332 = CARTESIAN_POINT ( 'NONE',  ( -3.299999999999999822, 4.041334437186265510E-16, -10.00000000000000000 ) ) ;
#333 = FACE_OUTER_BOUND ( 'NONE', #58, .T. ) ;
#334 = DIRECTION ( 'NONE',  ( 0.000000000000000000, 0.000000000000000000, 1.000000000000000000 ) ) ;
#335 = MANIFOLD_SOLID_BREP ( 'Imported1', #66 ) ;
#336 = AXIS2_PLACEMENT_3D ( 'NONE', #120, #247, #369 ) ;
#337 =( LENGTH_UNIT ( ) NAMED_UNIT ( * ) SI_UNIT ( .MILLI., .METRE. ) );
#338 = CIRCLE ( 'NONE', #267, 10.00000000000000000 ) ;
#339 = AXIS2_PLACEMENT_3D ( 'NONE', #46, #150, #364 ) ;
#340 = LINE ( 'NONE', #251, #117 ) ;
#341 = APPROVAL_ROLE ( '' ) ;
#342 = DIRECTION ( 'NONE',  ( -1.000000000000000000, 0.000000000000000000, 0.000000000000000000 ) ) ;
#343 = VERTEX_POINT ( 'NONE', #332 ) ;
#344 = APPROVAL_DATE_TIME ( #133, #15 ) ;
#345 = CARTESIAN_POINT ( 'NONE',  ( 10.00000000000000000, 0.000000000000000000, 15.00000000000000000 ) ) ;
#346 = CIRCLE ( 'NONE', #134, 10.00000000000000000 ) ;
#347 = LOCAL_TIME ( 8, 52, 25.00000000000000000, #56 ) ;
#348 = FACE_BOUND ( 'NONE', #377, .T. ) ;
#349 = DATE_TIME_ROLE ( 'classification_date' ) ;
#350 = CYLINDRICAL_SURFACE ( 'NONE', #169, 5.500000000000000000 ) ;
#351 = EDGE_CURVE ( 'NONE', #286, #183, #301, .T. ) ;
#352 = CARTESIAN_POINT ( 'NONE',  ( 0.000000000000000000, 0.000000000000000000, 20.00000000000000000 ) ) ;
#353 = AXIS2_PLACEMENT_3D ( 'NONE', #302, #334, #148 ) ;
#354 = AXIS2_PLACEMENT_3D ( 'NONE', #242, #182, #16 ) ;
#355 = EDGE_CURVE ( 'NONE', #399, #196, #289, .T. ) ;
#356 = CARTESIAN_POINT ( 'NONE',  ( 0.000000000000000000, 0.000000000000000000, -10.00000000000000000 ) ) ;
#357 = CYLINDRICAL_SURFACE ( 'NONE', #260, 3.299999999999999822 ) ;
#358 = APPLICATION_PROTOCOL_DEFINITION ( 'international standard', 'config_control_design', 1994, #239 ) ;
#359 = ORIENTED_EDGE ( 'NONE', *, *, #45, .F. ) ;
#360 = VECTOR ( 'NONE', #261, 1000.000000000000000 ) ;
#361 = DIRECTION ( 'NONE',  ( 0.000000000000000000, 0.000000000000000000, 1.000000000000000000 ) ) ;
#362 = ORIENTED_EDGE ( 'NONE', *, *, #351, .T. ) ;
#363 = ORIENTED_EDGE ( 'NONE', *, *, #327, .F. ) ;
#364 = DIRECTION ( 'NONE',  ( 1.000000000000000000, 0.000000000000000000, 0.000000000000000000 ) ) ;
#365 = EDGE_CURVE ( 'NONE', #90, #368, #53, .T. ) ;
#366 = DATE_AND_TIME ( #37, #107 ) ;
#367 = ORIENTED_EDGE ( 'NONE', *, *, #89, .T. ) ;
#368 = VERTEX_POINT ( 'NONE', #271 ) ;
#369 = DIRECTION ( 'NONE',  ( 1.000000000000000000, 0.000000000000000000, 0.000000000000000000 ) ) ;
#370 = ORIENTED_EDGE ( 'NONE', *, *, #397, .T. ) ;
#371 = FACE_BOUND ( 'NONE', #215, .T. ) ;
#372 = ORIENTED_EDGE ( 'NONE', *, *, #10, .T. ) ;
#373 = VECTOR ( 'NONE', #287, 1000.000000000000000 ) ;
#374 = APPROVAL_PERSON_ORGANIZATION ( #130, #296, #199 ) ;
#375 = PLANE ( 'NONE',  #28 ) ;
#376 = ORIENTED_EDGE ( 'NONE', *, *, #155, .F. ) ;
#377 = EDGE_LOOP ( 'NONE', ( #372, #370 ) ) ;
#378 = PERSON_AND_ORGANIZATION ( #100, #74 ) ;
#379 = CARTESIAN_POINT ( 'NONE',  ( 3.299999999999999822, 0.000000000000000000, -10.00000000000000000 ) ) ;
#380 = EDGE_LOOP ( 'NONE', ( #222, #362, #331, #270 ) ) ;
#381 = CALENDAR_DATE ( 2021, 25, 10 ) ;
#382 = APPROVAL ( #197, 'UNSPECIFIED' ) ;
#383 = CIRCLE ( 'NONE', #227, 7.500000000000000000 ) ;
#384 = FACE_OUTER_BOUND ( 'NONE', #404, .T. ) ;
#385 = CIRCLE ( 'NONE', #201, 7.500000000000000000 ) ;
#386 = LINE ( 'NONE', #102, #373 ) ;
#387 = EDGE_CURVE ( 'NONE', #75, #192, #83, .T. ) ;
#388 = CARTESIAN_POINT ( 'NONE',  ( 7.500000000000000000, 0.000000000000000000, 0.000000000000000000 ) ) ;
#389 = CARTESIAN_POINT ( 'NONE',  ( 7.500000000000000000, 0.000000000000000000, 20.00000000000000000 ) ) ;
#390 = UNCERTAINTY_MEASURE_WITH_UNIT (LENGTH_MEASURE( 1.000000000000000082E-05 ), #337, 'distance_accuracy_value', 'NONE');
#391 = DIRECTION ( 'NONE',  ( 1.000000000000000000, 0.000000000000000000, 0.000000000000000000 ) ) ;
#392 = PERSON_AND_ORGANIZATION_ROLE ( 'design_owner' ) ;
#393 = CYLINDRICAL_SURFACE ( 'NONE', #353, 10.00000000000000000 ) ;
#394 = APPROVAL_PERSON_ORGANIZATION ( #160, #15, #341 ) ;
#395 = ORIENTED_EDGE ( 'NONE', *, *, #277, .T. ) ;
#396 = CC_DESIGN_PERSON_AND_ORGANIZATION_ASSIGNMENT ( #265, #392, ( #318 ) ) ;
#397 = EDGE_CURVE ( 'NONE', #183, #252, #385, .T. ) ;
#398 = DIRECTION ( 'NONE',  ( 1.000000000000000000, 0.000000000000000000, 0.000000000000000000 ) ) ;
#399 = VERTEX_POINT ( 'NONE', #116 ) ;
#400 = DIRECTION ( 'NONE',  ( 1.000000000000000000, 0.000000000000000000, 0.000000000000000000 ) ) ;
#401 = DIRECTION ( 'NONE',  ( 1.000000000000000000, 0.000000000000000000, 0.000000000000000000 ) ) ;
#402 = CIRCLE ( 'NONE', #159, 3.299999999999999822 ) ;
#403 = DIRECTION ( 'NONE',  ( 1.000000000000000000, 0.000000000000000000, 0.000000000000000000 ) ) ;
#404 = EDGE_LOOP ( 'NONE', ( #220, #321, #211, #3 ) ) ;
#405 = FACE_OUTER_BOUND ( 'NONE', #305, .T. ) ;
#406 = ORIENTED_EDGE ( 'NONE', *, *, #330, .F. ) ;
#407 = EDGE_CURVE ( 'NONE', #33, #90, #147, .T. ) ;
#408 = APPROVAL_STATUS ( 'not_yet_approved' ) ;
#409 = DIRECTION ( 'NONE',  ( 1.000000000000000000, 0.000000000000000000, 0.000000000000000000 ) ) ;
ENDSEC;
END-ISO-10303-21;
