ISO-10303-21;
HEADER;
FILE_DESCRIPTION (( 'STEP AP203' ),
    '1' );
FILE_NAME ('bj300-08050.STEP',
    '2021-10-24T23:50:58',
    ( '' ),
    ( '' ),
    'SwSTEP 2.0',
    'SolidWorks 2020',
    '' );
FILE_SCHEMA (( 'CONFIG_CONTROL_DESIGN' ));
ENDSEC;

DATA;
#1 = DIRECTION ( 'NONE',  ( 1.000000000000000000, 0.000000000000000000, 0.000000000000000000 ) ) ;
#2 = APPROVAL_STATUS ( 'not_yet_approved' ) ;
#3 = PLANE ( 'NONE',  #267 ) ;
#4 = APPROVAL_DATE_TIME ( #111, #34 ) ;
#5 = VECTOR ( 'NONE', #96, 1000.000000000000000 ) ;
#6 = DATE_TIME_ROLE ( 'creation_date' ) ;
#7 = DIRECTION ( 'NONE',  ( 1.000000000000000000, 0.000000000000000000, 0.000000000000000000 ) ) ;
#8 = DATE_TIME_ROLE ( 'classification_date' ) ;
#9 = CC_DESIGN_DATE_AND_TIME_ASSIGNMENT ( #236, #6, ( #146 ) ) ;
#10 = ORIENTED_EDGE ( 'NONE', *, *, #300, .F. ) ;
#11 = EDGE_LOOP ( 'NONE', ( #274, #10 ) ) ;
#12 = DIRECTION ( 'NONE',  ( 0.000000000000000000, 0.000000000000000000, 1.000000000000000000 ) ) ;
#13 = VERTEX_POINT ( 'NONE', #131 ) ;
#14 = ORIENTED_EDGE ( 'NONE', *, *, #15, .F. ) ;
#15 = EDGE_CURVE ( 'NONE', #174, #39, #322, .T. ) ;
#16 = DIRECTION ( 'NONE',  ( 0.000000000000000000, 0.000000000000000000, 1.000000000000000000 ) ) ;
#17 = MANIFOLD_SOLID_BREP ( 'Imported1', #54 ) ;
#18 = EDGE_LOOP ( 'NONE', ( #124, #312, #287, #250 ) ) ;
#19 = CARTESIAN_POINT ( 'NONE',  ( 0.000000000000000000, 0.000000000000000000, 50.00000000000000000 ) ) ;
#20 = EDGE_CURVE ( 'NONE', #174, #132, #277, .T. ) ;
#21 = PERSON_AND_ORGANIZATION ( #32, #219 ) ;
#22 = DIRECTION ( 'NONE',  ( 0.000000000000000000, 0.000000000000000000, 1.000000000000000000 ) ) ;
#23 = VECTOR ( 'NONE', #22, 1000.000000000000000 ) ;
#24 = FACE_BOUND ( 'NONE', #216, .T. ) ;
#25 = EDGE_CURVE ( 'NONE', #293, #266, #286, .T. ) ;
#26 = CYLINDRICAL_SURFACE ( 'NONE', #317, 12.50000000000000000 ) ;
#27 = CC_DESIGN_PERSON_AND_ORGANIZATION_ASSIGNMENT ( #21, #296, ( #294 ) ) ;
#28 = CARTESIAN_POINT ( 'NONE',  ( 4.500000000000000000, 0.000000000000000000, 0.000000000000000000 ) ) ;
#29 = AXIS2_PLACEMENT_3D ( 'NONE', #184, #71, #46 ) ;
#30 = PERSON_AND_ORGANIZATION ( #32, #219 ) ;
#31 = DIRECTION ( 'NONE',  ( 0.000000000000000000, 0.000000000000000000, 1.000000000000000000 ) ) ;
#32 = PERSON ( 'UNSPECIFIED', 'UNSPECIFIED', 'UNSPECIFIED', ('UNSPECIFIED'), ('UNSPECIFIED'), ('UNSPECIFIED') ) ;
#33 = EDGE_CURVE ( 'NONE', #132, #43, #186, .T. ) ;
#34 = APPROVAL ( #137, 'UNSPECIFIED' ) ;
#35 = FACE_OUTER_BOUND ( 'NONE', #224, .T. ) ;
#36 = ORIENTED_EDGE ( 'NONE', *, *, #33, .F. ) ;
#37 = AXIS2_PLACEMENT_3D ( 'NONE', #28, #142, #7 ) ;
#38 = VECTOR ( 'NONE', #218, 1000.000000000000000 ) ;
#39 = VERTEX_POINT ( 'NONE', #253 ) ;
#40 = DIRECTION ( 'NONE',  ( 1.000000000000000000, 0.000000000000000000, 0.000000000000000000 ) ) ;
#41 = ORIENTED_EDGE ( 'NONE', *, *, #310, .T. ) ;
#42 = LOCAL_TIME ( 8, 50, 58.00000000000000000, #191 ) ;
#43 = VERTEX_POINT ( 'NONE', #229 ) ;
#44 = DIRECTION ( 'NONE',  ( 1.000000000000000000, 0.000000000000000000, 0.000000000000000000 ) ) ;
#45 = DIRECTION ( 'NONE',  ( 0.000000000000000000, 0.000000000000000000, 1.000000000000000000 ) ) ;
#46 = DIRECTION ( 'NONE',  ( 1.000000000000000000, 0.000000000000000000, 0.000000000000000000 ) ) ;
#47 = EDGE_CURVE ( 'NONE', #109, #126, #187, .T. ) ;
#48 = APPROVAL_PERSON_ORGANIZATION ( #113, #34, #255 ) ;
#49 = CARTESIAN_POINT ( 'NONE',  ( 0.000000000000000000, 0.000000000000000000, 50.00000000000000000 ) ) ;
#50 = PERSON_AND_ORGANIZATION ( #32, #219 ) ;
#51 = DIRECTION ( 'NONE',  ( 0.000000000000000000, 0.000000000000000000, 1.000000000000000000 ) ) ;
#52 = CALENDAR_DATE ( 2021, 25, 10 ) ;
#53 = CARTESIAN_POINT ( 'NONE',  ( -12.50000000000000000, 1.530808498934191521E-15, 40.00000000000000000 ) ) ;
#54 = CLOSED_SHELL ( 'NONE', ( #204, #94, #256, #135, #237, #173, #149, #166, #185 ) ) ;
#55 = FACE_OUTER_BOUND ( 'NONE', #18, .T. ) ;
#56 = CALENDAR_DATE ( 2021, 25, 10 ) ;
#57 = PLANE ( 'NONE',  #98 ) ;
#58 = AXIS2_PLACEMENT_3D ( 'NONE', #260, #239, #114 ) ;
#59 = CARTESIAN_POINT ( 'NONE',  ( 7.000000000000000000, 0.000000000000000000, 50.00000000000000000 ) ) ;
#60 = ORIENTED_EDGE ( 'NONE', *, *, #307, .F. ) ;
#61 = CARTESIAN_POINT ( 'NONE',  ( 4.500000000000000000, 0.000000000000000000, 0.000000000000000000 ) ) ;
#62 = CIRCLE ( 'NONE', #214, 7.000000000000000000 ) ;
#63 = AXIS2_PLACEMENT_3D ( 'NONE', #19, #205, #65 ) ;
#64 = FACE_OUTER_BOUND ( 'NONE', #220, .T. ) ;
#65 = DIRECTION ( 'NONE',  ( 1.000000000000000000, 0.000000000000000000, 0.000000000000000000 ) ) ;
#66 = ORIENTED_EDGE ( 'NONE', *, *, #160, .T. ) ;
#67 = DIRECTION ( 'NONE',  ( 1.000000000000000000, 0.000000000000000000, 0.000000000000000000 ) ) ;
#68 = ORIENTED_EDGE ( 'NONE', *, *, #200, .T. ) ;
#69 =( LENGTH_UNIT ( ) NAMED_UNIT ( * ) SI_UNIT ( .MILLI., .METRE. ) );
#70 = DIRECTION ( 'NONE',  ( 1.000000000000000000, 0.000000000000000000, 0.000000000000000000 ) ) ;
#71 = DIRECTION ( 'NONE',  ( 0.000000000000000000, 0.000000000000000000, 1.000000000000000000 ) ) ;
#72 = APPROVAL ( #2, 'UNSPECIFIED' ) ;
#73 = CIRCLE ( 'NONE', #29, 12.50000000000000000 ) ;
#74 = SECURITY_CLASSIFICATION ( '', '', #304 ) ;
#75 = APPROVAL_ROLE ( '' ) ;
#76 = CARTESIAN_POINT ( 'NONE',  ( 0.000000000000000000, 0.000000000000000000, 0.000000000000000000 ) ) ;
#77 = PERSON_AND_ORGANIZATION_ROLE ( 'design_supplier' ) ;
#78 = EDGE_CURVE ( 'NONE', #194, #251, #73, .T. ) ;
#79 = COORDINATED_UNIVERSAL_TIME_OFFSET ( 9, 0, .AHEAD. ) ;
#80 = CIRCLE ( 'NONE', #58, 4.500000000000000000 ) ;
#81 = FACE_OUTER_BOUND ( 'NONE', #11, .T. ) ;
#82 = SHAPE_DEFINITION_REPRESENTATION ( #299, #123 ) ;
#83 = EDGE_CURVE ( 'NONE', #266, #194, #276, .T. ) ;
#84 = DIRECTION ( 'NONE',  ( 1.000000000000000000, 0.000000000000000000, 0.000000000000000000 ) ) ;
#85 = AXIS2_PLACEMENT_3D ( 'NONE', #283, #328, #297 ) ;
#86 = CC_DESIGN_APPROVAL ( #72, ( #74 ) ) ;
#87 = EDGE_CURVE ( 'NONE', #13, #177, #62, .T. ) ;
#88 = DIRECTION ( 'NONE',  ( 1.000000000000000000, 0.000000000000000000, 0.000000000000000000 ) ) ;
#89 = EDGE_LOOP ( 'NONE', ( #288, #243, #68, #14 ) ) ;
#90 = ORIENTED_EDGE ( 'NONE', *, *, #285, .F. ) ;
#91 = ORIENTED_EDGE ( 'NONE', *, *, #310, .F. ) ;
#92 = CARTESIAN_POINT ( 'NONE',  ( 0.000000000000000000, 0.000000000000000000, 7.000000000000000000 ) ) ;
#93 = ORIENTED_EDGE ( 'NONE', *, *, #307, .T. ) ;
#94 = ADVANCED_FACE ( 'NONE', ( #203 ), #180, .T. ) ;
#95 = CARTESIAN_POINT ( 'NONE',  ( 7.000000000000000000, 0.000000000000000000, 40.00000000000000000 ) ) ;
#96 = DIRECTION ( 'NONE',  ( 0.000000000000000000, 0.000000000000000000, 1.000000000000000000 ) ) ;
#97 = DIRECTION ( 'NONE',  ( 1.000000000000000000, 0.000000000000000000, 0.000000000000000000 ) ) ;
#98 = AXIS2_PLACEMENT_3D ( 'NONE', #190, #262, #232 ) ;
#99 = DIRECTION ( 'NONE',  ( 0.000000000000000000, 0.000000000000000000, 1.000000000000000000 ) ) ;
#100 = DIRECTION ( 'NONE',  ( 1.000000000000000000, 0.000000000000000000, 0.000000000000000000 ) ) ;
#101 = UNCERTAINTY_MEASURE_WITH_UNIT (LENGTH_MEASURE( 1.000000000000000082E-05 ), #69, 'distance_accuracy_value', 'NONE');
#102 = DIRECTION ( 'NONE',  ( 0.000000000000000000, 0.000000000000000000, 1.000000000000000000 ) ) ;
#103 = CARTESIAN_POINT ( 'NONE',  ( 0.000000000000000000, 0.000000000000000000, 0.000000000000000000 ) ) ;
#104 = CARTESIAN_POINT ( 'NONE',  ( 12.50000000000000000, 0.000000000000000000, 40.00000000000000000 ) ) ;
#105 = CARTESIAN_POINT ( 'NONE',  ( 0.000000000000000000, 0.000000000000000000, 7.000000000000000000 ) ) ;
#106 = CIRCLE ( 'NONE', #136, 4.500000000000000000 ) ;
#107 = CC_DESIGN_SECURITY_CLASSIFICATION ( #74, ( #231 ) ) ;
#108 =( NAMED_UNIT ( * ) SI_UNIT ( $, .STERADIAN. ) SOLID_ANGLE_UNIT ( ) );
#109 = VERTEX_POINT ( 'NONE', #282 ) ;
#110 = FACE_OUTER_BOUND ( 'NONE', #198, .T. ) ;
#111 = DATE_AND_TIME ( #56, #42 ) ;
#112 = CARTESIAN_POINT ( 'NONE',  ( 12.50000000000000000, 0.000000000000000000, 50.00000000000000000 ) ) ;
#113 = PERSON_AND_ORGANIZATION ( #32, #219 ) ;
#114 = DIRECTION ( 'NONE',  ( 1.000000000000000000, 0.000000000000000000, 0.000000000000000000 ) ) ;
#115 = DIRECTION ( 'NONE',  ( 1.000000000000000000, 0.000000000000000000, 0.000000000000000000 ) ) ;
#116 = CYLINDRICAL_SURFACE ( 'NONE', #279, 7.000000000000000000 ) ;
#117 = ORIENTED_EDGE ( 'NONE', *, *, #291, .T. ) ;
#118 = PRODUCT_RELATED_PRODUCT_CATEGORY ( 'detail', '', ( #294 ) ) ;
#119 = LINE ( 'NONE', #95, #38 ) ;
#120 = EDGE_CURVE ( 'NONE', #251, #194, #202, .T. ) ;
#121 = ORIENTED_EDGE ( 'NONE', *, *, #20, .F. ) ;
#122 = AXIS2_PLACEMENT_3D ( 'NONE', #295, #327, #70 ) ;
#123 = ADVANCED_BREP_SHAPE_REPRESENTATION ( 'bj300-08050', ( #17, #325 ), #258 ) ;
#124 = ORIENTED_EDGE ( 'NONE', *, *, #83, .F. ) ;
#125 = CALENDAR_DATE ( 2021, 25, 10 ) ;
#126 = VERTEX_POINT ( 'NONE', #59 ) ;
#127 = DIRECTION ( 'NONE',  ( 1.000000000000000000, 0.000000000000000000, 0.000000000000000000 ) ) ;
#128 = DIRECTION ( 'NONE',  ( 0.000000000000000000, 0.000000000000000000, 1.000000000000000000 ) ) ;
#129 = EDGE_CURVE ( 'NONE', #132, #174, #225, .T. ) ;
#130 = CARTESIAN_POINT ( 'NONE',  ( 0.000000000000000000, 0.000000000000000000, 0.000000000000000000 ) ) ;
#131 = CARTESIAN_POINT ( 'NONE',  ( -7.000000000000000000, 8.572527594031473190E-16, 7.000000000000000000 ) ) ;
#132 = VERTEX_POINT ( 'NONE', #164 ) ;
#133 = CARTESIAN_POINT ( 'NONE',  ( 0.000000000000000000, 0.000000000000000000, 7.000000000000000000 ) ) ;
#134 = DIRECTION ( 'NONE',  ( 1.000000000000000000, 0.000000000000000000, 0.000000000000000000 ) ) ;
#135 = ADVANCED_FACE ( 'NONE', ( #259, #303 ), #57, .F. ) ;
#136 = AXIS2_PLACEMENT_3D ( 'NONE', #92, #313, #115 ) ;
#137 = APPROVAL_STATUS ( 'not_yet_approved' ) ;
#138 = CC_DESIGN_PERSON_AND_ORGANIZATION_ASSIGNMENT ( #30, #77, ( #231 ) ) ;
#139 = PERSON_AND_ORGANIZATION_ROLE ( 'classification_officer' ) ;
#140 = PLANE ( 'NONE',  #37 ) ;
#141 = AXIS2_PLACEMENT_3D ( 'NONE', #167, #269, #265 ) ;
#142 = DIRECTION ( 'NONE',  ( 0.000000000000000000, 0.000000000000000000, 1.000000000000000000 ) ) ;
#143 = DIRECTION ( 'NONE',  ( 1.000000000000000000, 0.000000000000000000, 0.000000000000000000 ) ) ;
#144 = CARTESIAN_POINT ( 'NONE',  ( 12.50000000000000000, 0.000000000000000000, 50.00000000000000000 ) ) ;
#145 = ORIENTED_EDGE ( 'NONE', *, *, #25, .T. ) ;
#146 = PRODUCT_DEFINITION ( 'UNKNOWN', '', #231, #292 ) ;
#147 = DIRECTION ( 'NONE',  ( 0.000000000000000000, 0.000000000000000000, 1.000000000000000000 ) ) ;
#148 = ORIENTED_EDGE ( 'NONE', *, *, #87, .F. ) ;
#149 = ADVANCED_FACE ( 'NONE', ( #55 ), #26, .T. ) ;
#150 = ORIENTED_EDGE ( 'NONE', *, *, #78, .T. ) ;
#151 = CARTESIAN_POINT ( 'NONE',  ( -12.50000000000000000, 1.530808498934191521E-15, 50.00000000000000000 ) ) ;
#152 = AXIS2_PLACEMENT_3D ( 'NONE', #234, #308, #84 ) ;
#153 = DATE_AND_TIME ( #125, #309 ) ;
#154 = EDGE_LOOP ( 'NONE', ( #196, #161 ) ) ;
#155 =( NAMED_UNIT ( * ) PLANE_ANGLE_UNIT ( ) SI_UNIT ( $, .RADIAN. ) );
#156 = CARTESIAN_POINT ( 'NONE',  ( 4.500000000000000000, 0.000000000000000000, 40.00000000000000000 ) ) ;
#157 = CARTESIAN_POINT ( 'NONE',  ( 0.000000000000000000, 0.000000000000000000, 0.000000000000000000 ) ) ;
#158 = APPROVAL_PERSON_ORGANIZATION ( #209, #72, #238 ) ;
#159 = CALENDAR_DATE ( 2021, 25, 10 ) ;
#160 = EDGE_CURVE ( 'NONE', #39, #43, #80, .T. ) ;
#161 = ORIENTED_EDGE ( 'NONE', *, *, #200, .F. ) ;
#162 = DIRECTION ( 'NONE',  ( 0.000000000000000000, 0.000000000000000000, 1.000000000000000000 ) ) ;
#163 = PERSON_AND_ORGANIZATION ( #32, #219 ) ;
#164 = CARTESIAN_POINT ( 'NONE',  ( -4.500000000000000000, 5.510910596163088569E-16, 0.000000000000000000 ) ) ;
#165 = COORDINATED_UNIVERSAL_TIME_OFFSET ( 9, 0, .AHEAD. ) ;
#166 = ADVANCED_FACE ( 'NONE', ( #24, #110 ), #3, .F. ) ;
#167 = CARTESIAN_POINT ( 'NONE',  ( 0.000000000000000000, 0.000000000000000000, 40.00000000000000000 ) ) ;
#168 = EDGE_LOOP ( 'NONE', ( #117, #217 ) ) ;
#169 = VECTOR ( 'NONE', #275, 1000.000000000000000 ) ;
#170 = CYLINDRICAL_SURFACE ( 'NONE', #141, 4.500000000000000000 ) ;
#171 = ORIENTED_EDGE ( 'NONE', *, *, #129, .T. ) ;
#172 = CYLINDRICAL_SURFACE ( 'NONE', #195, 7.000000000000000000 ) ;
#173 = ADVANCED_FACE ( 'NONE', ( #81, #189 ), #140, .F. ) ;
#174 = VERTEX_POINT ( 'NONE', #61 ) ;
#175 = AXIS2_PLACEMENT_3D ( 'NONE', #103, #16, #1 ) ;
#176 = PERSON_AND_ORGANIZATION_ROLE ( 'creator' ) ;
#177 = VERTEX_POINT ( 'NONE', #215 ) ;
#178 = EDGE_LOOP ( 'NONE', ( #145, #272, #319, #90 ) ) ;
#179 = LINE ( 'NONE', #230, #5 ) ;
#180 = CYLINDRICAL_SURFACE ( 'NONE', #122, 12.50000000000000000 ) ;
#181 = CIRCLE ( 'NONE', #63, 7.000000000000000000 ) ;
#182 = LOCAL_TIME ( 8, 50, 58.00000000000000000, #79 ) ;
#183 = APPLICATION_PROTOCOL_DEFINITION ( 'international standard', 'config_control_design', 1994, #197 ) ;
#184 = CARTESIAN_POINT ( 'NONE',  ( 0.000000000000000000, 0.000000000000000000, 50.00000000000000000 ) ) ;
#185 = ADVANCED_FACE ( 'NONE', ( #64 ), #172, .F. ) ;
#186 = LINE ( 'NONE', #226, #257 ) ;
#187 = CIRCLE ( 'NONE', #85, 7.000000000000000000 ) ;
#188 = DATE_AND_TIME ( #233, #182 ) ;
#189 = FACE_BOUND ( 'NONE', #326, .T. ) ;
#190 = CARTESIAN_POINT ( 'NONE',  ( 7.000000000000000000, 0.000000000000000000, 7.000000000000000000 ) ) ;
#191 = COORDINATED_UNIVERSAL_TIME_OFFSET ( 9, 0, .AHEAD. ) ;
#192 = AXIS2_PLACEMENT_3D ( 'NONE', #133, #252, #67 ) ;
#193 = ORIENTED_EDGE ( 'NONE', *, *, #20, .T. ) ;
#194 = VERTEX_POINT ( 'NONE', #151 ) ;
#195 = AXIS2_PLACEMENT_3D ( 'NONE', #318, #240, #40 ) ;
#196 = ORIENTED_EDGE ( 'NONE', *, *, #160, .F. ) ;
#197 = APPLICATION_CONTEXT ( 'configuration controlled 3d designs of mechanical parts and assemblies' ) ;
#198 = EDGE_LOOP ( 'NONE', ( #245, #150 ) ) ;
#199 = ORIENTED_EDGE ( 'NONE', *, *, #261, .T. ) ;
#200 = EDGE_CURVE ( 'NONE', #43, #39, #106, .T. ) ;
#201 = CARTESIAN_POINT ( 'NONE',  ( -12.50000000000000000, 1.530808498934191521E-15, 0.000000000000000000 ) ) ;
#202 = CIRCLE ( 'NONE', #206, 12.50000000000000000 ) ;
#203 = FACE_OUTER_BOUND ( 'NONE', #178, .T. ) ;
#204 = ADVANCED_FACE ( 'NONE', ( #311 ), #116, .F. ) ;
#205 = DIRECTION ( 'NONE',  ( 0.000000000000000000, 0.000000000000000000, 1.000000000000000000 ) ) ;
#206 = AXIS2_PLACEMENT_3D ( 'NONE', #49, #51, #134 ) ;
#207 = APPLICATION_PROTOCOL_DEFINITION ( 'international standard', 'config_control_design', 1994, #315 ) ;
#208 = DIRECTION ( 'NONE',  ( 0.000000000000000000, 0.000000000000000000, -1.000000000000000000 ) ) ;
#209 = PERSON_AND_ORGANIZATION ( #32, #219 ) ;
#210 = AXIS2_PLACEMENT_3D ( 'NONE', #76, #45, #97 ) ;
#211 = CIRCLE ( 'NONE', #289, 12.50000000000000000 ) ;
#212 = APPROVAL_DATE_TIME ( #188, #72 ) ;
#213 = CARTESIAN_POINT ( 'NONE',  ( 0.000000000000000000, 0.000000000000000000, 40.00000000000000000 ) ) ;
#214 = AXIS2_PLACEMENT_3D ( 'NONE', #105, #162, #100 ) ;
#215 = CARTESIAN_POINT ( 'NONE',  ( 7.000000000000000000, 0.000000000000000000, 7.000000000000000000 ) ) ;
#216 = EDGE_LOOP ( 'NONE', ( #60, #248 ) ) ;
#217 = ORIENTED_EDGE ( 'NONE', *, *, #87, .T. ) ;
#218 = DIRECTION ( 'NONE',  ( 0.000000000000000000, 0.000000000000000000, 1.000000000000000000 ) ) ;
#219 = ORGANIZATION ( 'UNSPECIFIED', 'UNSPECIFIED', '' ) ;
#220 = EDGE_LOOP ( 'NONE', ( #91, #246, #199, #93 ) ) ;
#221 = FACE_OUTER_BOUND ( 'NONE', #89, .T. ) ;
#222 = APPROVAL_DATE_TIME ( #153, #298 ) ;
#223 = VECTOR ( 'NONE', #273, 1000.000000000000000 ) ;
#224 = EDGE_LOOP ( 'NONE', ( #36, #121, #316, #66 ) ) ;
#225 = CIRCLE ( 'NONE', #152, 4.500000000000000000 ) ;
#226 = CARTESIAN_POINT ( 'NONE',  ( -4.500000000000000000, 5.510910596163088569E-16, 40.00000000000000000 ) ) ;
#227 = CARTESIAN_POINT ( 'NONE',  ( 12.50000000000000000, 0.000000000000000000, 0.000000000000000000 ) ) ;
#228 = CC_DESIGN_PERSON_AND_ORGANIZATION_ASSIGNMENT ( #249, #176, ( #146 ) ) ;
#229 = CARTESIAN_POINT ( 'NONE',  ( -4.500000000000000000, 5.510910596163088569E-16, 7.000000000000000000 ) ) ;
#230 = CARTESIAN_POINT ( 'NONE',  ( -7.000000000000000000, 8.572527594031473190E-16, 40.00000000000000000 ) ) ;
#231 = PRODUCT_DEFINITION_FORMATION_WITH_SPECIFIED_SOURCE ( 'ANY', '', #294, .NOT_KNOWN. ) ;
#232 = DIRECTION ( 'NONE',  ( -1.000000000000000000, 0.000000000000000000, 0.000000000000000000 ) ) ;
#233 = CALENDAR_DATE ( 2021, 25, 10 ) ;
#234 = CARTESIAN_POINT ( 'NONE',  ( 0.000000000000000000, 0.000000000000000000, 0.000000000000000000 ) ) ;
#235 = CC_DESIGN_APPROVAL ( #34, ( #231 ) ) ;
#236 = DATE_AND_TIME ( #159, #263 ) ;
#237 = ADVANCED_FACE ( 'NONE', ( #35 ), #170, .F. ) ;
#238 = APPROVAL_ROLE ( '' ) ;
#239 = DIRECTION ( 'NONE',  ( 0.000000000000000000, 0.000000000000000000, 1.000000000000000000 ) ) ;
#240 = DIRECTION ( 'NONE',  ( 0.000000000000000000, 0.000000000000000000, 1.000000000000000000 ) ) ;
#241 = LOCAL_TIME ( 8, 50, 58.00000000000000000, #165 ) ;
#242 = CARTESIAN_POINT ( 'NONE',  ( 0.000000000000000000, 0.000000000000000000, 40.00000000000000000 ) ) ;
#243 = ORIENTED_EDGE ( 'NONE', *, *, #33, .T. ) ;
#244 = DIRECTION ( 'NONE',  ( 1.000000000000000000, 0.000000000000000000, 0.000000000000000000 ) ) ;
#245 = ORIENTED_EDGE ( 'NONE', *, *, #120, .T. ) ;
#246 = ORIENTED_EDGE ( 'NONE', *, *, #291, .F. ) ;
#247 = CARTESIAN_POINT ( 'NONE',  ( 0.000000000000000000, 0.000000000000000000, 40.00000000000000000 ) ) ;
#248 = ORIENTED_EDGE ( 'NONE', *, *, #47, .F. ) ;
#249 = PERSON_AND_ORGANIZATION ( #32, #219 ) ;
#250 = ORIENTED_EDGE ( 'NONE', *, *, #78, .F. ) ;
#251 = VERTEX_POINT ( 'NONE', #144 ) ;
#252 = DIRECTION ( 'NONE',  ( 0.000000000000000000, 0.000000000000000000, 1.000000000000000000 ) ) ;
#253 = CARTESIAN_POINT ( 'NONE',  ( 4.500000000000000000, 0.000000000000000000, 7.000000000000000000 ) ) ;
#254 = ORIENTED_EDGE ( 'NONE', *, *, #47, .T. ) ;
#255 = APPROVAL_ROLE ( '' ) ;
#256 = ADVANCED_FACE ( 'NONE', ( #221 ), #320, .F. ) ;
#257 = VECTOR ( 'NONE', #128, 1000.000000000000000 ) ;
#258 =( GEOMETRIC_REPRESENTATION_CONTEXT ( 3 ) GLOBAL_UNCERTAINTY_ASSIGNED_CONTEXT ( ( #101 ) ) GLOBAL_UNIT_ASSIGNED_CONTEXT ( ( #69, #155, #108 ) ) REPRESENTATION_CONTEXT ( 'NONE', 'WORKASPACE' ) );
#259 = FACE_BOUND ( 'NONE', #154, .T. ) ;
#260 = CARTESIAN_POINT ( 'NONE',  ( 0.000000000000000000, 0.000000000000000000, 7.000000000000000000 ) ) ;
#261 = EDGE_CURVE ( 'NONE', #177, #126, #119, .T. ) ;
#262 = DIRECTION ( 'NONE',  ( 0.000000000000000000, 0.000000000000000000, -1.000000000000000000 ) ) ;
#263 = LOCAL_TIME ( 8, 50, 58.00000000000000000, #324 ) ;
#264 = DATE_AND_TIME ( #52, #241 ) ;
#265 = DIRECTION ( 'NONE',  ( 1.000000000000000000, 0.000000000000000000, 0.000000000000000000 ) ) ;
#266 = VERTEX_POINT ( 'NONE', #201 ) ;
#267 = AXIS2_PLACEMENT_3D ( 'NONE', #112, #208, #305 ) ;
#268 = APPROVAL_PERSON_ORGANIZATION ( #50, #298, #75 ) ;
#269 = DIRECTION ( 'NONE',  ( 0.000000000000000000, 0.000000000000000000, 1.000000000000000000 ) ) ;
#270 = ORIENTED_EDGE ( 'NONE', *, *, #261, .F. ) ;
#271 = CC_DESIGN_PERSON_AND_ORGANIZATION_ASSIGNMENT ( #301, #284, ( #231 ) ) ;
#272 = ORIENTED_EDGE ( 'NONE', *, *, #83, .T. ) ;
#273 = DIRECTION ( 'NONE',  ( 0.000000000000000000, 0.000000000000000000, 1.000000000000000000 ) ) ;
#274 = ORIENTED_EDGE ( 'NONE', *, *, #25, .F. ) ;
#275 = DIRECTION ( 'NONE',  ( 0.000000000000000000, 0.000000000000000000, 1.000000000000000000 ) ) ;
#276 = LINE ( 'NONE', #53, #23 ) ;
#277 = CIRCLE ( 'NONE', #210, 4.500000000000000000 ) ;
#278 = APPROVAL_STATUS ( 'not_yet_approved' ) ;
#279 = AXIS2_PLACEMENT_3D ( 'NONE', #247, #12, #88 ) ;
#280 = CC_DESIGN_PERSON_AND_ORGANIZATION_ASSIGNMENT ( #163, #139, ( #74 ) ) ;
#281 = MECHANICAL_CONTEXT ( 'NONE', #315, 'mechanical' ) ;
#282 = CARTESIAN_POINT ( 'NONE',  ( -7.000000000000000000, 8.572527594031473190E-16, 50.00000000000000000 ) ) ;
#283 = CARTESIAN_POINT ( 'NONE',  ( 0.000000000000000000, 0.000000000000000000, 50.00000000000000000 ) ) ;
#284 = PERSON_AND_ORGANIZATION_ROLE ( 'creator' ) ;
#285 = EDGE_CURVE ( 'NONE', #293, #251, #321, .T. ) ;
#286 = CIRCLE ( 'NONE', #175, 12.50000000000000000 ) ;
#287 = ORIENTED_EDGE ( 'NONE', *, *, #285, .T. ) ;
#288 = ORIENTED_EDGE ( 'NONE', *, *, #129, .F. ) ;
#289 = AXIS2_PLACEMENT_3D ( 'NONE', #157, #99, #44 ) ;
#290 = CC_DESIGN_APPROVAL ( #298, ( #146 ) ) ;
#291 = EDGE_CURVE ( 'NONE', #177, #13, #306, .T. ) ;
#292 = DESIGN_CONTEXT ( 'detailed design', #197, 'design' ) ;
#293 = VERTEX_POINT ( 'NONE', #227 ) ;
#294 = PRODUCT ( 'bj300-08050', 'bj300-08050', '', ( #281 ) ) ;
#295 = CARTESIAN_POINT ( 'NONE',  ( 0.000000000000000000, 0.000000000000000000, 40.00000000000000000 ) ) ;
#296 = PERSON_AND_ORGANIZATION_ROLE ( 'design_owner' ) ;
#297 = DIRECTION ( 'NONE',  ( 1.000000000000000000, 0.000000000000000000, 0.000000000000000000 ) ) ;
#298 = APPROVAL ( #278, 'UNSPECIFIED' ) ;
#299 = PRODUCT_DEFINITION_SHAPE ( 'NONE', 'NONE',  #146 ) ;
#300 = EDGE_CURVE ( 'NONE', #266, #293, #211, .T. ) ;
#301 = PERSON_AND_ORGANIZATION ( #32, #219 ) ;
#302 = CC_DESIGN_DATE_AND_TIME_ASSIGNMENT ( #264, #8, ( #74 ) ) ;
#303 = FACE_OUTER_BOUND ( 'NONE', #168, .T. ) ;
#304 = SECURITY_CLASSIFICATION_LEVEL ( 'unclassified' ) ;
#305 = DIRECTION ( 'NONE',  ( -1.000000000000000000, 0.000000000000000000, 0.000000000000000000 ) ) ;
#306 = CIRCLE ( 'NONE', #192, 7.000000000000000000 ) ;
#307 = EDGE_CURVE ( 'NONE', #126, #109, #181, .T. ) ;
#308 = DIRECTION ( 'NONE',  ( 0.000000000000000000, 0.000000000000000000, 1.000000000000000000 ) ) ;
#309 = LOCAL_TIME ( 8, 50, 58.00000000000000000, #329 ) ;
#310 = EDGE_CURVE ( 'NONE', #13, #109, #179, .T. ) ;
#311 = FACE_OUTER_BOUND ( 'NONE', #314, .T. ) ;
#312 = ORIENTED_EDGE ( 'NONE', *, *, #300, .T. ) ;
#313 = DIRECTION ( 'NONE',  ( 0.000000000000000000, 0.000000000000000000, 1.000000000000000000 ) ) ;
#314 = EDGE_LOOP ( 'NONE', ( #148, #41, #254, #270 ) ) ;
#315 = APPLICATION_CONTEXT ( 'configuration controlled 3d designs of mechanical parts and assemblies' ) ;
#316 = ORIENTED_EDGE ( 'NONE', *, *, #15, .T. ) ;
#317 = AXIS2_PLACEMENT_3D ( 'NONE', #213, #31, #143 ) ;
#318 = CARTESIAN_POINT ( 'NONE',  ( 0.000000000000000000, 0.000000000000000000, 40.00000000000000000 ) ) ;
#319 = ORIENTED_EDGE ( 'NONE', *, *, #120, .F. ) ;
#320 = CYLINDRICAL_SURFACE ( 'NONE', #323, 4.500000000000000000 ) ;
#321 = LINE ( 'NONE', #104, #223 ) ;
#322 = LINE ( 'NONE', #156, #169 ) ;
#323 = AXIS2_PLACEMENT_3D ( 'NONE', #242, #147, #244 ) ;
#324 = COORDINATED_UNIVERSAL_TIME_OFFSET ( 9, 0, .AHEAD. ) ;
#325 = AXIS2_PLACEMENT_3D ( 'NONE', #130, #102, #127 ) ;
#326 = EDGE_LOOP ( 'NONE', ( #193, #171 ) ) ;
#327 = DIRECTION ( 'NONE',  ( 0.000000000000000000, 0.000000000000000000, 1.000000000000000000 ) ) ;
#328 = DIRECTION ( 'NONE',  ( 0.000000000000000000, 0.000000000000000000, 1.000000000000000000 ) ) ;
#329 = COORDINATED_UNIVERSAL_TIME_OFFSET ( 9, 0, .AHEAD. ) ;
ENDSEC;
END-ISO-10303-21;
