ISO-10303-21;
HEADER;
FILE_DESCRIPTION (( 'STEP AP203' ),
    '1' );
FILE_NAME ('bj300-10050.STEP',
    '2021-10-24T23:51:09',
    ( '' ),
    ( '' ),
    'SwSTEP 2.0',
    'SolidWorks 2020',
    '' );
FILE_SCHEMA (( 'CONFIG_CONTROL_DESIGN' ));
ENDSEC;

DATA;
#1 = DIRECTION ( 'NONE',  ( -1.000000000000000000, 0.000000000000000000, 0.000000000000000000 ) ) ;
#2 = VECTOR ( 'NONE', #214, 1000.000000000000000 ) ;
#3 = DIRECTION ( 'NONE',  ( 0.000000000000000000, 0.000000000000000000, 1.000000000000000000 ) ) ;
#4 = ADVANCED_FACE ( 'NONE', ( #180 ), #45, .F. ) ;
#5 = DIRECTION ( 'NONE',  ( 0.000000000000000000, 0.000000000000000000, 1.000000000000000000 ) ) ;
#6 = CARTESIAN_POINT ( 'NONE',  ( 5.500000000000000000, 0.000000000000000000, 0.000000000000000000 ) ) ;
#7 = CIRCLE ( 'NONE', #83, 5.500000000000000000 ) ;
#8 = FACE_OUTER_BOUND ( 'NONE', #230, .T. ) ;
#9 = PERSON_AND_ORGANIZATION_ROLE ( 'design_owner' ) ;
#10 = CARTESIAN_POINT ( 'NONE',  ( 0.000000000000000000, 0.000000000000000000, 50.00000000000000000 ) ) ;
#11 = APPROVAL_STATUS ( 'not_yet_approved' ) ;
#12 = ADVANCED_FACE ( 'NONE', ( #326, #101 ), #206, .F. ) ;
#13 = PERSON_AND_ORGANIZATION_ROLE ( 'creator' ) ;
#14 = VECTOR ( 'NONE', #138, 1000.000000000000000 ) ;
#15 = DIRECTION ( 'NONE',  ( 0.000000000000000000, 0.000000000000000000, 1.000000000000000000 ) ) ;
#16 = CC_DESIGN_SECURITY_CLASSIFICATION ( #264, ( #272 ) ) ;
#17 = DIRECTION ( 'NONE',  ( 1.000000000000000000, 0.000000000000000000, 0.000000000000000000 ) ) ;
#18 = COORDINATED_UNIVERSAL_TIME_OFFSET ( 9, 0, .AHEAD. ) ;
#19 = CALENDAR_DATE ( 2021, 25, 10 ) ;
#20 = AXIS2_PLACEMENT_3D ( 'NONE', #10, #217, #65 ) ;
#21 = EDGE_LOOP ( 'NONE', ( #209, #154 ) ) ;
#22 = DIRECTION ( 'NONE',  ( 0.000000000000000000, 0.000000000000000000, 1.000000000000000000 ) ) ;
#23 = ORIENTED_EDGE ( 'NONE', *, *, #203, .T. ) ;
#24 = APPROVAL ( #11, 'UNSPECIFIED' ) ;
#25 = EDGE_CURVE ( 'NONE', #53, #243, #193, .T. ) ;
#26 = CARTESIAN_POINT ( 'NONE',  ( -16.00000000000000000, 1.959434878635765131E-15, 50.00000000000000000 ) ) ;
#27 = CARTESIAN_POINT ( 'NONE',  ( 0.000000000000000000, 0.000000000000000000, 40.00000000000000000 ) ) ;
#28 = AXIS2_PLACEMENT_3D ( 'NONE', #38, #294, #17 ) ;
#29 = VERTEX_POINT ( 'NONE', #55 ) ;
#30 = DIRECTION ( 'NONE',  ( 0.000000000000000000, 0.000000000000000000, 1.000000000000000000 ) ) ;
#31 = LINE ( 'NONE', #163, #14 ) ;
#32 = CARTESIAN_POINT ( 'NONE',  ( 9.000000000000000000, 0.000000000000000000, 50.00000000000000000 ) ) ;
#33 = EDGE_CURVE ( 'NONE', #48, #318, #62, .T. ) ;
#34 = DIRECTION ( 'NONE',  ( 0.000000000000000000, 0.000000000000000000, 1.000000000000000000 ) ) ;
#35 = AXIS2_PLACEMENT_3D ( 'NONE', #109, #112, #89 ) ;
#36 = LOCAL_TIME ( 8, 51, 9.000000000000000000, #168 ) ;
#37 = CARTESIAN_POINT ( 'NONE',  ( 0.000000000000000000, 0.000000000000000000, 9.000000000000000000 ) ) ;
#38 = CARTESIAN_POINT ( 'NONE',  ( 0.000000000000000000, 0.000000000000000000, 0.000000000000000000 ) ) ;
#39 = PLANE ( 'NONE',  #279 ) ;
#40 = PERSON_AND_ORGANIZATION ( #98, #228 ) ;
#41 = CIRCLE ( 'NONE', #141, 5.500000000000000000 ) ;
#42 = CYLINDRICAL_SURFACE ( 'NONE', #192, 16.00000000000000000 ) ;
#43 = PERSON_AND_ORGANIZATION ( #98, #228 ) ;
#44 = DIRECTION ( 'NONE',  ( 0.000000000000000000, 0.000000000000000000, 1.000000000000000000 ) ) ;
#45 = CYLINDRICAL_SURFACE ( 'NONE', #155, 9.000000000000000000 ) ;
#46 = ORIENTED_EDGE ( 'NONE', *, *, #117, .T. ) ;
#47 = DIRECTION ( 'NONE',  ( 1.000000000000000000, 0.000000000000000000, 0.000000000000000000 ) ) ;
#48 = VERTEX_POINT ( 'NONE', #162 ) ;
#49 = CARTESIAN_POINT ( 'NONE',  ( 0.000000000000000000, 0.000000000000000000, 0.000000000000000000 ) ) ;
#50 = ORIENTED_EDGE ( 'NONE', *, *, #117, .F. ) ;
#51 = APPROVAL ( #90, 'UNSPECIFIED' ) ;
#52 = LINE ( 'NONE', #280, #139 ) ;
#53 = VERTEX_POINT ( 'NONE', #136 ) ;
#54 = APPLICATION_CONTEXT ( 'configuration controlled 3d designs of mechanical parts and assemblies' ) ;
#55 = CARTESIAN_POINT ( 'NONE',  ( -5.500000000000000000, 6.735557395310442023E-16, 0.000000000000000000 ) ) ;
#56 = ADVANCED_FACE ( 'NONE', ( #82 ), #314, .F. ) ;
#57 = APPROVAL_ROLE ( '' ) ;
#58 = FACE_OUTER_BOUND ( 'NONE', #81, .T. ) ;
#59 = AXIS2_PLACEMENT_3D ( 'NONE', #198, #15, #69 ) ;
#60 = CARTESIAN_POINT ( 'NONE',  ( -5.500000000000000000, 6.735557395310442023E-16, 9.000000000000000000 ) ) ;
#61 = DIRECTION ( 'NONE',  ( 1.000000000000000000, 0.000000000000000000, 0.000000000000000000 ) ) ;
#62 = LINE ( 'NONE', #235, #2 ) ;
#63 = EDGE_CURVE ( 'NONE', #143, #103, #87, .T. ) ;
#64 = AXIS2_PLACEMENT_3D ( 'NONE', #288, #30, #61 ) ;
#65 = DIRECTION ( 'NONE',  ( 1.000000000000000000, 0.000000000000000000, 0.000000000000000000 ) ) ;
#66 = ADVANCED_FACE ( 'NONE', ( #58 ), #261, .T. ) ;
#67 = DATE_TIME_ROLE ( 'creation_date' ) ;
#68 = LOCAL_TIME ( 8, 51, 9.000000000000000000, #110 ) ;
#69 = DIRECTION ( 'NONE',  ( 1.000000000000000000, 0.000000000000000000, 0.000000000000000000 ) ) ;
#70 = EDGE_LOOP ( 'NONE', ( #159, #79, #130, #329 ) ) ;
#71 = APPROVAL_DATE_TIME ( #248, #169 ) ;
#72 = ADVANCED_FACE ( 'NONE', ( #8 ), #191, .F. ) ;
#73 = ORIENTED_EDGE ( 'NONE', *, *, #25, .F. ) ;
#74 = CC_DESIGN_PERSON_AND_ORGANIZATION_ASSIGNMENT ( #94, #241, ( #272 ) ) ;
#75 = DIRECTION ( 'NONE',  ( 1.000000000000000000, 0.000000000000000000, 0.000000000000000000 ) ) ;
#76 = VERTEX_POINT ( 'NONE', #257 ) ;
#77 = CLOSED_SHELL ( 'NONE', ( #56, #66, #181, #210, #72, #232, #213, #12, #4 ) ) ;
#78 = ORIENTED_EDGE ( 'NONE', *, *, #291, .F. ) ;
#79 = ORIENTED_EDGE ( 'NONE', *, *, #80, .T. ) ;
#80 = EDGE_CURVE ( 'NONE', #278, #76, #31, .T. ) ;
#81 = EDGE_LOOP ( 'NONE', ( #161, #281, #50, #73 ) ) ;
#82 = FACE_OUTER_BOUND ( 'NONE', #70, .T. ) ;
#83 = AXIS2_PLACEMENT_3D ( 'NONE', #96, #99, #276 ) ;
#84 = DIRECTION ( 'NONE',  ( 1.000000000000000000, 0.000000000000000000, 0.000000000000000000 ) ) ;
#85 = CC_DESIGN_DATE_AND_TIME_ASSIGNMENT ( #270, #67, ( #229 ) ) ;
#86 = DIRECTION ( 'NONE',  ( 0.000000000000000000, 0.000000000000000000, -1.000000000000000000 ) ) ;
#87 = LINE ( 'NONE', #308, #190 ) ;
#88 = CC_DESIGN_APPROVAL ( #51, ( #229 ) ) ;
#89 = DIRECTION ( 'NONE',  ( 1.000000000000000000, 0.000000000000000000, 0.000000000000000000 ) ) ;
#90 = APPROVAL_STATUS ( 'not_yet_approved' ) ;
#91 = AXIS2_PLACEMENT_3D ( 'NONE', #239, #287, #84 ) ;
#92 = SHAPE_DEFINITION_REPRESENTATION ( #194, #284 ) ;
#93 = FACE_BOUND ( 'NONE', #204, .T. ) ;
#94 = PERSON_AND_ORGANIZATION ( #98, #228 ) ;
#95 = DATE_AND_TIME ( #137, #68 ) ;
#96 = CARTESIAN_POINT ( 'NONE',  ( 0.000000000000000000, 0.000000000000000000, 9.000000000000000000 ) ) ;
#97 = CALENDAR_DATE ( 2021, 25, 10 ) ;
#98 = PERSON ( 'UNSPECIFIED', 'UNSPECIFIED', 'UNSPECIFIED', ('UNSPECIFIED'), ('UNSPECIFIED'), ('UNSPECIFIED') ) ;
#99 = DIRECTION ( 'NONE',  ( 0.000000000000000000, 0.000000000000000000, 1.000000000000000000 ) ) ;
#100 = VERTEX_POINT ( 'NONE', #60 ) ;
#101 = FACE_OUTER_BOUND ( 'NONE', #283, .T. ) ;
#102 = AXIS2_PLACEMENT_3D ( 'NONE', #166, #296, #120 ) ;
#103 = VERTEX_POINT ( 'NONE', #32 ) ;
#104 =( NAMED_UNIT ( * ) PLANE_ANGLE_UNIT ( ) SI_UNIT ( $, .RADIAN. ) );
#105 = DIRECTION ( 'NONE',  ( 0.000000000000000000, 0.000000000000000000, 1.000000000000000000 ) ) ;
#106 = ORIENTED_EDGE ( 'NONE', *, *, #122, .F. ) ;
#107 = DIRECTION ( 'NONE',  ( 1.000000000000000000, 0.000000000000000000, 0.000000000000000000 ) ) ;
#108 = AXIS2_PLACEMENT_3D ( 'NONE', #290, #114, #285 ) ;
#109 = CARTESIAN_POINT ( 'NONE',  ( 0.000000000000000000, 0.000000000000000000, 0.000000000000000000 ) ) ;
#110 = COORDINATED_UNIVERSAL_TIME_OFFSET ( 9, 0, .AHEAD. ) ;
#111 =( NAMED_UNIT ( * ) SI_UNIT ( $, .STERADIAN. ) SOLID_ANGLE_UNIT ( ) );
#112 = DIRECTION ( 'NONE',  ( 0.000000000000000000, 0.000000000000000000, 1.000000000000000000 ) ) ;
#113 = MECHANICAL_CONTEXT ( 'NONE', #54, 'mechanical' ) ;
#114 = DIRECTION ( 'NONE',  ( 0.000000000000000000, 0.000000000000000000, 1.000000000000000000 ) ) ;
#115 = PERSON_AND_ORGANIZATION ( #98, #228 ) ;
#116 = CALENDAR_DATE ( 2021, 25, 10 ) ;
#117 = EDGE_CURVE ( 'NONE', #243, #318, #215, .T. ) ;
#118 = CARTESIAN_POINT ( 'NONE',  ( 9.000000000000000000, 0.000000000000000000, 9.000000000000000000 ) ) ;
#119 = AXIS2_PLACEMENT_3D ( 'NONE', #142, #242, #317 ) ;
#120 = DIRECTION ( 'NONE',  ( 1.000000000000000000, 0.000000000000000000, 0.000000000000000000 ) ) ;
#121 = VERTEX_POINT ( 'NONE', #6 ) ;
#122 = EDGE_CURVE ( 'NONE', #29, #121, #201, .T. ) ;
#123 = DIRECTION ( 'NONE',  ( 1.000000000000000000, 0.000000000000000000, 0.000000000000000000 ) ) ;
#124 = DATE_AND_TIME ( #19, #127 ) ;
#125 = APPROVAL_STATUS ( 'not_yet_approved' ) ;
#126 = AXIS2_PLACEMENT_3D ( 'NONE', #129, #44, #75 ) ;
#127 = LOCAL_TIME ( 8, 51, 9.000000000000000000, #324 ) ;
#128 = EDGE_LOOP ( 'NONE', ( #186, #78 ) ) ;
#129 = CARTESIAN_POINT ( 'NONE',  ( 0.000000000000000000, 0.000000000000000000, 50.00000000000000000 ) ) ;
#130 = ORIENTED_EDGE ( 'NONE', *, *, #291, .T. ) ;
#131 = EDGE_CURVE ( 'NONE', #103, #76, #160, .T. ) ;
#132 = ORIENTED_EDGE ( 'NONE', *, *, #234, .T. ) ;
#133 = DIRECTION ( 'NONE',  ( 0.000000000000000000, 0.000000000000000000, 1.000000000000000000 ) ) ;
#134 = AXIS2_PLACEMENT_3D ( 'NONE', #165, #5, #107 ) ;
#135 = ORIENTED_EDGE ( 'NONE', *, *, #199, .T. ) ;
#136 = CARTESIAN_POINT ( 'NONE',  ( 16.00000000000000000, 0.000000000000000000, 0.000000000000000000 ) ) ;
#137 = CALENDAR_DATE ( 2021, 25, 10 ) ;
#138 = DIRECTION ( 'NONE',  ( 0.000000000000000000, 0.000000000000000000, 1.000000000000000000 ) ) ;
#139 = VECTOR ( 'NONE', #22, 1000.000000000000000 ) ;
#140 = DIRECTION ( 'NONE',  ( 1.000000000000000000, 0.000000000000000000, 0.000000000000000000 ) ) ;
#141 = AXIS2_PLACEMENT_3D ( 'NONE', #49, #133, #302 ) ;
#142 = CARTESIAN_POINT ( 'NONE',  ( 0.000000000000000000, 0.000000000000000000, 9.000000000000000000 ) ) ;
#143 = VERTEX_POINT ( 'NONE', #118 ) ;
#144 = EDGE_CURVE ( 'NONE', #48, #53, #315, .T. ) ;
#145 = CARTESIAN_POINT ( 'NONE',  ( 0.000000000000000000, 0.000000000000000000, 9.000000000000000000 ) ) ;
#146 = ORIENTED_EDGE ( 'NONE', *, *, #131, .T. ) ;
#147 = CIRCLE ( 'NONE', #20, 16.00000000000000000 ) ;
#148 = CC_DESIGN_APPROVAL ( #24, ( #264 ) ) ;
#149 = CARTESIAN_POINT ( 'NONE',  ( 0.000000000000000000, 0.000000000000000000, 40.00000000000000000 ) ) ;
#150 = APPROVAL_DATE_TIME ( #95, #51 ) ;
#151 = EDGE_CURVE ( 'NONE', #121, #303, #177, .T. ) ;
#152 = ORIENTED_EDGE ( 'NONE', *, *, #234, .F. ) ;
#153 = APPROVAL_ROLE ( '' ) ;
#154 = ORIENTED_EDGE ( 'NONE', *, *, #175, .T. ) ;
#155 = AXIS2_PLACEMENT_3D ( 'NONE', #27, #105, #307 ) ;
#156 = ORIENTED_EDGE ( 'NONE', *, *, #187, .F. ) ;
#157 = ORIENTED_EDGE ( 'NONE', *, *, #216, .F. ) ;
#158 = EDGE_CURVE ( 'NONE', #53, #48, #167, .T. ) ;
#159 = ORIENTED_EDGE ( 'NONE', *, *, #175, .F. ) ;
#160 = CIRCLE ( 'NONE', #59, 9.000000000000000000 ) ;
#161 = ORIENTED_EDGE ( 'NONE', *, *, #158, .T. ) ;
#162 = CARTESIAN_POINT ( 'NONE',  ( -16.00000000000000000, 1.959434878635765131E-15, 0.000000000000000000 ) ) ;
#163 = CARTESIAN_POINT ( 'NONE',  ( -9.000000000000000000, 1.102182119232617714E-15, 40.00000000000000000 ) ) ;
#164 = APPLICATION_PROTOCOL_DEFINITION ( 'international standard', 'config_control_design', 1994, #253 ) ;
#165 = CARTESIAN_POINT ( 'NONE',  ( 0.000000000000000000, 0.000000000000000000, 40.00000000000000000 ) ) ;
#166 = CARTESIAN_POINT ( 'NONE',  ( 0.000000000000000000, 0.000000000000000000, 40.00000000000000000 ) ) ;
#167 = CIRCLE ( 'NONE', #305, 16.00000000000000000 ) ;
#168 = COORDINATED_UNIVERSAL_TIME_OFFSET ( 9, 0, .AHEAD. ) ;
#169 = APPROVAL ( #125, 'UNSPECIFIED' ) ;
#170 = DIRECTION ( 'NONE',  ( 1.000000000000000000, 0.000000000000000000, 0.000000000000000000 ) ) ;
#171 = ORIENTED_EDGE ( 'NONE', *, *, #151, .F. ) ;
#172 = PERSON_AND_ORGANIZATION_ROLE ( 'classification_officer' ) ;
#173 = DIRECTION ( 'NONE',  ( 0.000000000000000000, 0.000000000000000000, 1.000000000000000000 ) ) ;
#174 = DATE_AND_TIME ( #97, #36 ) ;
#175 = EDGE_CURVE ( 'NONE', #278, #143, #258, .T. ) ;
#176 = CC_DESIGN_APPROVAL ( #169, ( #272 ) ) ;
#177 = LINE ( 'NONE', #320, #196 ) ;
#178 = EDGE_LOOP ( 'NONE', ( #223, #249 ) ) ;
#179 = FACE_BOUND ( 'NONE', #183, .T. ) ;
#180 = FACE_OUTER_BOUND ( 'NONE', #282, .T. ) ;
#181 = ADVANCED_FACE ( 'NONE', ( #265 ), #263, .F. ) ;
#182 = FACE_OUTER_BOUND ( 'NONE', #178, .T. ) ;
#183 = EDGE_LOOP ( 'NONE', ( #306, #208 ) ) ;
#184 =( GEOMETRIC_REPRESENTATION_CONTEXT ( 3 ) GLOBAL_UNCERTAINTY_ASSIGNED_CONTEXT ( ( #222 ) ) GLOBAL_UNIT_ASSIGNED_CONTEXT ( ( #226, #104, #111 ) ) REPRESENTATION_CONTEXT ( 'NONE', 'WORKASPACE' ) );
#185 = DESIGN_CONTEXT ( 'detailed design', #253, 'design' ) ;
#186 = ORIENTED_EDGE ( 'NONE', *, *, #131, .F. ) ;
#187 = EDGE_CURVE ( 'NONE', #143, #278, #225, .T. ) ;
#188 = CARTESIAN_POINT ( 'NONE',  ( -9.000000000000000000, 1.102182119232617714E-15, 9.000000000000000000 ) ) ;
#189 = ORIENTED_EDGE ( 'NONE', *, *, #216, .T. ) ;
#190 = VECTOR ( 'NONE', #312, 1000.000000000000000 ) ;
#191 = CYLINDRICAL_SURFACE ( 'NONE', #108, 5.500000000000000000 ) ;
#192 = AXIS2_PLACEMENT_3D ( 'NONE', #149, #245, #123 ) ;
#193 = LINE ( 'NONE', #256, #207 ) ;
#194 = PRODUCT_DEFINITION_SHAPE ( 'NONE', 'NONE',  #229 ) ;
#195 = DIRECTION ( 'NONE',  ( 0.000000000000000000, 0.000000000000000000, 1.000000000000000000 ) ) ;
#196 = VECTOR ( 'NONE', #274, 1000.000000000000000 ) ;
#197 = DIRECTION ( 'NONE',  ( 1.000000000000000000, 0.000000000000000000, 0.000000000000000000 ) ) ;
#198 = CARTESIAN_POINT ( 'NONE',  ( 0.000000000000000000, 0.000000000000000000, 50.00000000000000000 ) ) ;
#199 = EDGE_CURVE ( 'NONE', #318, #243, #147, .T. ) ;
#200 = PERSON_AND_ORGANIZATION ( #98, #228 ) ;
#201 = CIRCLE ( 'NONE', #35, 5.500000000000000000 ) ;
#202 = CARTESIAN_POINT ( 'NONE',  ( 5.500000000000000000, 0.000000000000000000, 0.000000000000000000 ) ) ;
#203 = EDGE_CURVE ( 'NONE', #100, #303, #289, .T. ) ;
#204 = EDGE_LOOP ( 'NONE', ( #152, #255 ) ) ;
#205 = CC_DESIGN_DATE_AND_TIME_ASSIGNMENT ( #124, #218, ( #264 ) ) ;
#206 = PLANE ( 'NONE',  #323 ) ;
#207 = VECTOR ( 'NONE', #34, 1000.000000000000000 ) ;
#208 = ORIENTED_EDGE ( 'NONE', *, *, #122, .T. ) ;
#209 = ORIENTED_EDGE ( 'NONE', *, *, #187, .T. ) ;
#210 = ADVANCED_FACE ( 'NONE', ( #93, #267 ), #39, .F. ) ;
#211 = ORIENTED_EDGE ( 'NONE', *, *, #33, .F. ) ;
#212 = CARTESIAN_POINT ( 'NONE',  ( 16.00000000000000000, 0.000000000000000000, 50.00000000000000000 ) ) ;
#213 = ADVANCED_FACE ( 'NONE', ( #271 ), #42, .T. ) ;
#214 = DIRECTION ( 'NONE',  ( 0.000000000000000000, 0.000000000000000000, 1.000000000000000000 ) ) ;
#215 = CIRCLE ( 'NONE', #293, 16.00000000000000000 ) ;
#216 = EDGE_CURVE ( 'NONE', #29, #100, #52, .T. ) ;
#217 = DIRECTION ( 'NONE',  ( 0.000000000000000000, 0.000000000000000000, 1.000000000000000000 ) ) ;
#218 = DATE_TIME_ROLE ( 'classification_date' ) ;
#219 = AXIS2_PLACEMENT_3D ( 'NONE', #37, #173, #170 ) ;
#220 = CARTESIAN_POINT ( 'NONE',  ( 9.000000000000000000, 0.000000000000000000, 9.000000000000000000 ) ) ;
#221 = ORIENTED_EDGE ( 'NONE', *, *, #199, .F. ) ;
#222 = UNCERTAINTY_MEASURE_WITH_UNIT (LENGTH_MEASURE( 1.000000000000000082E-05 ), #226, 'distance_accuracy_value', 'NONE');
#223 = ORIENTED_EDGE ( 'NONE', *, *, #158, .F. ) ;
#224 = SECURITY_CLASSIFICATION_LEVEL ( 'unclassified' ) ;
#225 = CIRCLE ( 'NONE', #219, 9.000000000000000000 ) ;
#226 =( LENGTH_UNIT ( ) NAMED_UNIT ( * ) SI_UNIT ( .MILLI., .METRE. ) );
#227 = ORIENTED_EDGE ( 'NONE', *, *, #63, .T. ) ;
#228 = ORGANIZATION ( 'UNSPECIFIED', 'UNSPECIFIED', '' ) ;
#229 = PRODUCT_DEFINITION ( 'UNKNOWN', '', #272, #185 ) ;
#230 = EDGE_LOOP ( 'NONE', ( #157, #231, #268, #132 ) ) ;
#231 = ORIENTED_EDGE ( 'NONE', *, *, #266, .F. ) ;
#232 = ADVANCED_FACE ( 'NONE', ( #182, #179 ), #322, .F. ) ;
#233 = CARTESIAN_POINT ( 'NONE',  ( 0.000000000000000000, 0.000000000000000000, 50.00000000000000000 ) ) ;
#234 = EDGE_CURVE ( 'NONE', #303, #100, #7, .T. ) ;
#235 = CARTESIAN_POINT ( 'NONE',  ( -16.00000000000000000, 1.959434878635765131E-15, 40.00000000000000000 ) ) ;
#236 = MANIFOLD_SOLID_BREP ( 'Imported1', #77 ) ;
#237 = PRODUCT ( 'bj300-10050', 'bj300-10050', '', ( #113 ) ) ;
#238 = APPROVAL_PERSON_ORGANIZATION ( #115, #51, #57 ) ;
#239 = CARTESIAN_POINT ( 'NONE',  ( 0.000000000000000000, 0.000000000000000000, 40.00000000000000000 ) ) ;
#240 = DIRECTION ( 'NONE',  ( 1.000000000000000000, 0.000000000000000000, 0.000000000000000000 ) ) ;
#241 = PERSON_AND_ORGANIZATION_ROLE ( 'design_supplier' ) ;
#242 = DIRECTION ( 'NONE',  ( 0.000000000000000000, 0.000000000000000000, 1.000000000000000000 ) ) ;
#243 = VERTEX_POINT ( 'NONE', #252 ) ;
#244 = AXIS2_PLACEMENT_3D ( 'NONE', #145, #292, #197 ) ;
#245 = DIRECTION ( 'NONE',  ( 0.000000000000000000, 0.000000000000000000, 1.000000000000000000 ) ) ;
#246 = APPROVAL_ROLE ( '' ) ;
#247 = EDGE_LOOP ( 'NONE', ( #106, #189, #23, #171 ) ) ;
#248 = DATE_AND_TIME ( #116, #300 ) ;
#249 = ORIENTED_EDGE ( 'NONE', *, *, #144, .F. ) ;
#250 = APPROVAL_PERSON_ORGANIZATION ( #40, #169, #153 ) ;
#251 = ORIENTED_EDGE ( 'NONE', *, *, #144, .T. ) ;
#252 = CARTESIAN_POINT ( 'NONE',  ( 16.00000000000000000, 0.000000000000000000, 50.00000000000000000 ) ) ;
#253 = APPLICATION_CONTEXT ( 'configuration controlled 3d designs of mechanical parts and assemblies' ) ;
#254 = CARTESIAN_POINT ( 'NONE',  ( 5.500000000000000000, 0.000000000000000000, 9.000000000000000000 ) ) ;
#255 = ORIENTED_EDGE ( 'NONE', *, *, #203, .F. ) ;
#256 = CARTESIAN_POINT ( 'NONE',  ( 16.00000000000000000, 0.000000000000000000, 40.00000000000000000 ) ) ;
#257 = CARTESIAN_POINT ( 'NONE',  ( -9.000000000000000000, 1.102182119232617714E-15, 50.00000000000000000 ) ) ;
#258 = CIRCLE ( 'NONE', #244, 9.000000000000000000 ) ;
#259 = APPLICATION_PROTOCOL_DEFINITION ( 'international standard', 'config_control_design', 1994, #54 ) ;
#260 = PRODUCT_RELATED_PRODUCT_CATEGORY ( 'detail', '', ( #237 ) ) ;
#261 = CYLINDRICAL_SURFACE ( 'NONE', #91, 16.00000000000000000 ) ;
#262 = CIRCLE ( 'NONE', #126, 9.000000000000000000 ) ;
#263 = CYLINDRICAL_SURFACE ( 'NONE', #102, 5.500000000000000000 ) ;
#264 = SECURITY_CLASSIFICATION ( '', '', #224 ) ;
#265 = FACE_OUTER_BOUND ( 'NONE', #247, .T. ) ;
#266 = EDGE_CURVE ( 'NONE', #121, #29, #41, .T. ) ;
#267 = FACE_OUTER_BOUND ( 'NONE', #21, .T. ) ;
#268 = ORIENTED_EDGE ( 'NONE', *, *, #151, .T. ) ;
#269 = CC_DESIGN_PERSON_AND_ORGANIZATION_ASSIGNMENT ( #43, #172, ( #264 ) ) ;
#270 = DATE_AND_TIME ( #297, #310 ) ;
#271 = FACE_OUTER_BOUND ( 'NONE', #325, .T. ) ;
#272 = PRODUCT_DEFINITION_FORMATION_WITH_SPECIFIED_SOURCE ( 'ANY', '', #237, .NOT_KNOWN. ) ;
#273 = PERSON_AND_ORGANIZATION ( #98, #228 ) ;
#274 = DIRECTION ( 'NONE',  ( 0.000000000000000000, 0.000000000000000000, 1.000000000000000000 ) ) ;
#275 = PERSON_AND_ORGANIZATION ( #98, #228 ) ;
#276 = DIRECTION ( 'NONE',  ( 1.000000000000000000, 0.000000000000000000, 0.000000000000000000 ) ) ;
#277 = ORIENTED_EDGE ( 'NONE', *, *, #25, .T. ) ;
#278 = VERTEX_POINT ( 'NONE', #188 ) ;
#279 = AXIS2_PLACEMENT_3D ( 'NONE', #220, #319, #298 ) ;
#280 = CARTESIAN_POINT ( 'NONE',  ( -5.500000000000000000, 6.735557395310442023E-16, 40.00000000000000000 ) ) ;
#281 = ORIENTED_EDGE ( 'NONE', *, *, #33, .T. ) ;
#282 = EDGE_LOOP ( 'NONE', ( #327, #156, #227, #146 ) ) ;
#283 = EDGE_LOOP ( 'NONE', ( #46, #135 ) ) ;
#284 = ADVANCED_BREP_SHAPE_REPRESENTATION ( 'bj300-10050', ( #236, #64 ), #184 ) ;
#285 = DIRECTION ( 'NONE',  ( 1.000000000000000000, 0.000000000000000000, 0.000000000000000000 ) ) ;
#286 = PERSON_AND_ORGANIZATION ( #98, #228 ) ;
#287 = DIRECTION ( 'NONE',  ( 0.000000000000000000, 0.000000000000000000, 1.000000000000000000 ) ) ;
#288 = CARTESIAN_POINT ( 'NONE',  ( 0.000000000000000000, 0.000000000000000000, 0.000000000000000000 ) ) ;
#289 = CIRCLE ( 'NONE', #119, 5.500000000000000000 ) ;
#290 = CARTESIAN_POINT ( 'NONE',  ( 0.000000000000000000, 0.000000000000000000, 40.00000000000000000 ) ) ;
#291 = EDGE_CURVE ( 'NONE', #76, #103, #262, .T. ) ;
#292 = DIRECTION ( 'NONE',  ( 0.000000000000000000, 0.000000000000000000, 1.000000000000000000 ) ) ;
#293 = AXIS2_PLACEMENT_3D ( 'NONE', #233, #3, #140 ) ;
#294 = DIRECTION ( 'NONE',  ( 0.000000000000000000, 0.000000000000000000, 1.000000000000000000 ) ) ;
#295 = APPROVAL_DATE_TIME ( #174, #24 ) ;
#296 = DIRECTION ( 'NONE',  ( 0.000000000000000000, 0.000000000000000000, 1.000000000000000000 ) ) ;
#297 = CALENDAR_DATE ( 2021, 25, 10 ) ;
#298 = DIRECTION ( 'NONE',  ( -1.000000000000000000, 0.000000000000000000, 0.000000000000000000 ) ) ;
#299 = COORDINATED_UNIVERSAL_TIME_OFFSET ( 9, 0, .AHEAD. ) ;
#300 = LOCAL_TIME ( 8, 51, 9.000000000000000000, #18 ) ;
#301 = PERSON_AND_ORGANIZATION_ROLE ( 'creator' ) ;
#302 = DIRECTION ( 'NONE',  ( 1.000000000000000000, 0.000000000000000000, 0.000000000000000000 ) ) ;
#303 = VERTEX_POINT ( 'NONE', #254 ) ;
#304 = DIRECTION ( 'NONE',  ( 0.000000000000000000, 0.000000000000000000, 1.000000000000000000 ) ) ;
#305 = AXIS2_PLACEMENT_3D ( 'NONE', #316, #195, #240 ) ;
#306 = ORIENTED_EDGE ( 'NONE', *, *, #266, .T. ) ;
#307 = DIRECTION ( 'NONE',  ( 1.000000000000000000, 0.000000000000000000, 0.000000000000000000 ) ) ;
#308 = CARTESIAN_POINT ( 'NONE',  ( 9.000000000000000000, 0.000000000000000000, 40.00000000000000000 ) ) ;
#309 = CC_DESIGN_PERSON_AND_ORGANIZATION_ASSIGNMENT ( #275, #13, ( #272 ) ) ;
#310 = LOCAL_TIME ( 8, 51, 9.000000000000000000, #299 ) ;
#311 = APPROVAL_PERSON_ORGANIZATION ( #200, #24, #246 ) ;
#312 = DIRECTION ( 'NONE',  ( 0.000000000000000000, 0.000000000000000000, 1.000000000000000000 ) ) ;
#313 = CC_DESIGN_PERSON_AND_ORGANIZATION_ASSIGNMENT ( #286, #9, ( #237 ) ) ;
#314 = CYLINDRICAL_SURFACE ( 'NONE', #134, 9.000000000000000000 ) ;
#315 = CIRCLE ( 'NONE', #28, 16.00000000000000000 ) ;
#316 = CARTESIAN_POINT ( 'NONE',  ( 0.000000000000000000, 0.000000000000000000, 0.000000000000000000 ) ) ;
#317 = DIRECTION ( 'NONE',  ( 1.000000000000000000, 0.000000000000000000, 0.000000000000000000 ) ) ;
#318 = VERTEX_POINT ( 'NONE', #26 ) ;
#319 = DIRECTION ( 'NONE',  ( 0.000000000000000000, 0.000000000000000000, -1.000000000000000000 ) ) ;
#320 = CARTESIAN_POINT ( 'NONE',  ( 5.500000000000000000, 0.000000000000000000, 40.00000000000000000 ) ) ;
#321 = CC_DESIGN_PERSON_AND_ORGANIZATION_ASSIGNMENT ( #273, #301, ( #229 ) ) ;
#322 = PLANE ( 'NONE',  #328 ) ;
#323 = AXIS2_PLACEMENT_3D ( 'NONE', #212, #86, #1 ) ;
#324 = COORDINATED_UNIVERSAL_TIME_OFFSET ( 9, 0, .AHEAD. ) ;
#325 = EDGE_LOOP ( 'NONE', ( #211, #251, #277, #221 ) ) ;
#326 = FACE_BOUND ( 'NONE', #128, .T. ) ;
#327 = ORIENTED_EDGE ( 'NONE', *, *, #80, .F. ) ;
#328 = AXIS2_PLACEMENT_3D ( 'NONE', #202, #304, #47 ) ;
#329 = ORIENTED_EDGE ( 'NONE', *, *, #63, .F. ) ;
ENDSEC;
END-ISO-10303-21;
