ISO-10303-21;
HEADER;
FILE_DESCRIPTION (( 'STEP AP203' ),
    '1' );
FILE_NAME ('bj401-04001.STEP',
    '2021-10-24T23:52:20',
    ( '' ),
    ( '' ),
    'SwSTEP 2.0',
    'SolidWorks 2020',
    '' );
FILE_SCHEMA (( 'CONFIG_CONTROL_DESIGN' ));
ENDSEC;

DATA;
#1 = DIRECTION ( 'NONE',  ( 0.000000000000000000, 0.000000000000000000, 1.000000000000000000 ) ) ;
#2 = EDGE_LOOP ( 'NONE', ( #144, #394 ) ) ;
#3 = CIRCLE ( 'NONE', #336, 7.500000000000000000 ) ;
#4 = AXIS2_PLACEMENT_3D ( 'NONE', #370, #32, #272 ) ;
#5 = PERSON_AND_ORGANIZATION ( #68, #79 ) ;
#6 = DATE_AND_TIME ( #314, #349 ) ;
#7 = EDGE_LOOP ( 'NONE', ( #70, #141 ) ) ;
#8 = AXIS2_PLACEMENT_3D ( 'NONE', #177, #312, #140 ) ;
#9 = AXIS2_PLACEMENT_3D ( 'NONE', #155, #1, #122 ) ;
#10 = COORDINATED_UNIVERSAL_TIME_OFFSET ( 9, 0, .AHEAD. ) ;
#11 = DIRECTION ( 'NONE',  ( 0.000000000000000000, 0.000000000000000000, 1.000000000000000000 ) ) ;
#12 = APPROVAL ( #294, 'UNSPECIFIED' ) ;
#13 = SHAPE_DEFINITION_REPRESENTATION ( #254, #231 ) ;
#14 = ORIENTED_EDGE ( 'NONE', *, *, #234, .T. ) ;
#15 = EDGE_CURVE ( 'NONE', #167, #359, #392, .T. ) ;
#16 = APPROVAL_ROLE ( '' ) ;
#17 = EDGE_LOOP ( 'NONE', ( #299, #249, #285, #205 ) ) ;
#18 = ORIENTED_EDGE ( 'NONE', *, *, #398, .F. ) ;
#19 = PERSON_AND_ORGANIZATION ( #68, #79 ) ;
#20 = CARTESIAN_POINT ( 'NONE',  ( 5.000000000000000000, 0.000000000000000000, 0.000000000000000000 ) ) ;
#21 = CC_DESIGN_SECURITY_CLASSIFICATION ( #386, ( #48 ) ) ;
#22 = ORIENTED_EDGE ( 'NONE', *, *, #36, .F. ) ;
#23 = PRODUCT_DEFINITION ( 'UNKNOWN', '', #48, #125 ) ;
#24 = CYLINDRICAL_SURFACE ( 'NONE', #137, 5.000000000000000000 ) ;
#25 = EDGE_CURVE ( 'NONE', #293, #359, #268, .T. ) ;
#26 = ORIENTED_EDGE ( 'NONE', *, *, #252, .F. ) ;
#27 = DIRECTION ( 'NONE',  ( 0.000000000000000000, 0.000000000000000000, 1.000000000000000000 ) ) ;
#28 = VERTEX_POINT ( 'NONE', #390 ) ;
#29 = CARTESIAN_POINT ( 'NONE',  ( 5.000000000000000000, 0.000000000000000000, -8.000000000000000000 ) ) ;
#30 = CIRCLE ( 'NONE', #232, 7.500000000000000000 ) ;
#31 = PLANE ( 'NONE',  #179 ) ;
#32 = DIRECTION ( 'NONE',  ( 0.000000000000000000, 0.000000000000000000, 1.000000000000000000 ) ) ;
#33 = ORIENTED_EDGE ( 'NONE', *, *, #165, .F. ) ;
#34 = DIRECTION ( 'NONE',  ( 0.000000000000000000, 0.000000000000000000, 1.000000000000000000 ) ) ;
#35 = DIRECTION ( 'NONE',  ( 1.000000000000000000, 0.000000000000000000, 0.000000000000000000 ) ) ;
#36 = EDGE_CURVE ( 'NONE', #135, #342, #265, .T. ) ;
#37 = LINE ( 'NONE', #368, #241 ) ;
#38 = CIRCLE ( 'NONE', #300, 4.000000000000000000 ) ;
#39 = AXIS2_PLACEMENT_3D ( 'NONE', #217, #116, #110 ) ;
#40 = DIRECTION ( 'NONE',  ( 0.000000000000000000, 0.000000000000000000, 1.000000000000000000 ) ) ;
#41 = ORIENTED_EDGE ( 'NONE', *, *, #402, .F. ) ;
#42 = APPLICATION_CONTEXT ( 'configuration controlled 3d designs of mechanical parts and assemblies' ) ;
#43 = ORIENTED_EDGE ( 'NONE', *, *, #147, .F. ) ;
#44 = DATE_AND_TIME ( #198, #243 ) ;
#45 = VERTEX_POINT ( 'NONE', #197 ) ;
#46 = DIRECTION ( 'NONE',  ( 0.000000000000000000, 0.000000000000000000, 1.000000000000000000 ) ) ;
#47 = ORIENTED_EDGE ( 'NONE', *, *, #313, .F. ) ;
#48 = PRODUCT_DEFINITION_FORMATION_WITH_SPECIFIED_SOURCE ( 'ANY', '', #127, .NOT_KNOWN. ) ;
#49 = PERSON_AND_ORGANIZATION ( #68, #79 ) ;
#50 = DIRECTION ( 'NONE',  ( 1.000000000000000000, 0.000000000000000000, 0.000000000000000000 ) ) ;
#51 = ORIENTED_EDGE ( 'NONE', *, *, #59, .T. ) ;
#52 = EDGE_LOOP ( 'NONE', ( #124, #84, #82, #43 ) ) ;
#53 = APPROVAL_ROLE ( '' ) ;
#54 = DIRECTION ( 'NONE',  ( 1.000000000000000000, 0.000000000000000000, 0.000000000000000000 ) ) ;
#55 = CARTESIAN_POINT ( 'NONE',  ( -5.000000000000000000, 6.123233995736766282E-16, -8.000000000000000000 ) ) ;
#56 = DIRECTION ( 'NONE',  ( 0.000000000000000000, 0.000000000000000000, -1.000000000000000000 ) ) ;
#57 = DIRECTION ( 'NONE',  ( 1.000000000000000000, 0.000000000000000000, 0.000000000000000000 ) ) ;
#58 = FACE_OUTER_BOUND ( 'NONE', #353, .T. ) ;
#59 = EDGE_CURVE ( 'NONE', #60, #167, #361, .T. ) ;
#60 = VERTEX_POINT ( 'NONE', #132 ) ;
#61 = DIRECTION ( 'NONE',  ( 1.000000000000000000, 0.000000000000000000, 0.000000000000000000 ) ) ;
#62 = CYLINDRICAL_SURFACE ( 'NONE', #8, 5.000000000000000000 ) ;
#63 = DIRECTION ( 'NONE',  ( 0.000000000000000000, 0.000000000000000000, 1.000000000000000000 ) ) ;
#64 = APPROVAL_PERSON_ORGANIZATION ( #76, #12, #16 ) ;
#65 = CARTESIAN_POINT ( 'NONE',  ( 7.500000000000000000, 0.000000000000000000, 10.00000000000000000 ) ) ;
#66 = ADVANCED_FACE ( 'NONE', ( #264 ), #105, .T. ) ;
#67 = ORIENTED_EDGE ( 'NONE', *, *, #321, .F. ) ;
#68 = PERSON ( 'UNSPECIFIED', 'UNSPECIFIED', 'UNSPECIFIED', ('UNSPECIFIED'), ('UNSPECIFIED'), ('UNSPECIFIED') ) ;
#69 = APPROVAL_DATE_TIME ( #346, #350 ) ;
#70 = ORIENTED_EDGE ( 'NONE', *, *, #195, .F. ) ;
#71 = AXIS2_PLACEMENT_3D ( 'NONE', #80, #166, #50 ) ;
#72 = ADVANCED_FACE ( 'NONE', ( #251, #181 ), #31, .F. ) ;
#73 = PERSON_AND_ORGANIZATION_ROLE ( 'design_supplier' ) ;
#74 = DIRECTION ( 'NONE',  ( 0.000000000000000000, 0.000000000000000000, 1.000000000000000000 ) ) ;
#75 = DIRECTION ( 'NONE',  ( 0.000000000000000000, 0.000000000000000000, 1.000000000000000000 ) ) ;
#76 = PERSON_AND_ORGANIZATION ( #68, #79 ) ;
#77 = ADVANCED_FACE ( 'NONE', ( #114 ), #404, .F. ) ;
#78 = VERTEX_POINT ( 'NONE', #55 ) ;
#79 = ORGANIZATION ( 'UNSPECIFIED', 'UNSPECIFIED', '' ) ;
#80 = CARTESIAN_POINT ( 'NONE',  ( 0.000000000000000000, 0.000000000000000000, -8.000000000000000000 ) ) ;
#81 = PERSON_AND_ORGANIZATION ( #68, #79 ) ;
#82 = ORIENTED_EDGE ( 'NONE', *, *, #303, .F. ) ;
#83 = PLANE ( 'NONE',  #131 ) ;
#84 = ORIENTED_EDGE ( 'NONE', *, *, #321, .T. ) ;
#85 = AXIS2_PLACEMENT_3D ( 'NONE', #246, #244, #86 ) ;
#86 = DIRECTION ( 'NONE',  ( 1.000000000000000000, 0.000000000000000000, 0.000000000000000000 ) ) ;
#87 = DIRECTION ( 'NONE',  ( 0.000000000000000000, 0.000000000000000000, 1.000000000000000000 ) ) ;
#88 = EDGE_CURVE ( 'NONE', #174, #159, #37, .T. ) ;
#89 = DIRECTION ( 'NONE',  ( 0.000000000000000000, 0.000000000000000000, 1.000000000000000000 ) ) ;
#90 = DIRECTION ( 'NONE',  ( 1.000000000000000000, 0.000000000000000000, 0.000000000000000000 ) ) ;
#91 = DIRECTION ( 'NONE',  ( 0.000000000000000000, 0.000000000000000000, 1.000000000000000000 ) ) ;
#92 = DIRECTION ( 'NONE',  ( 0.000000000000000000, 0.000000000000000000, 1.000000000000000000 ) ) ;
#93 = CARTESIAN_POINT ( 'NONE',  ( 4.000000000000000000, 0.000000000000000000, 10.00000000000000000 ) ) ;
#94 = CC_DESIGN_APPROVAL ( #306, ( #48 ) ) ;
#95 = CARTESIAN_POINT ( 'NONE',  ( 5.000000000000000000, 0.000000000000000000, 22.00000000000000000 ) ) ;
#96 = CARTESIAN_POINT ( 'NONE',  ( 0.000000000000000000, 0.000000000000000000, 22.00000000000000000 ) ) ;
#97 = LINE ( 'NONE', #382, #381 ) ;
#98 = CARTESIAN_POINT ( 'NONE',  ( 4.000000000000000000, 0.000000000000000000, 5.000000000000000000 ) ) ;
#99 = AXIS2_PLACEMENT_3D ( 'NONE', #325, #46, #328 ) ;
#100 = LOCAL_TIME ( 8, 52, 20.00000000000000000, #10 ) ;
#101 = FACE_BOUND ( 'NONE', #111, .T. ) ;
#102 = CALENDAR_DATE ( 2021, 25, 10 ) ;
#103 = DATE_TIME_ROLE ( 'creation_date' ) ;
#104 = ORIENTED_EDGE ( 'NONE', *, *, #15, .F. ) ;
#105 = CYLINDRICAL_SURFACE ( 'NONE', #282, 7.500000000000000000 ) ;
#106 = VECTOR ( 'NONE', #75, 1000.000000000000000 ) ;
#107 = FACE_BOUND ( 'NONE', #2, .T. ) ;
#108 = ORIENTED_EDGE ( 'NONE', *, *, #289, .T. ) ;
#109 = DIRECTION ( 'NONE',  ( 0.000000000000000000, 0.000000000000000000, 1.000000000000000000 ) ) ;
#110 = DIRECTION ( 'NONE',  ( 1.000000000000000000, 0.000000000000000000, 0.000000000000000000 ) ) ;
#111 = EDGE_LOOP ( 'NONE', ( #257, #26 ) ) ;
#112 = ORIENTED_EDGE ( 'NONE', *, *, #402, .T. ) ;
#113 = FACE_BOUND ( 'NONE', #320, .T. ) ;
#114 = FACE_OUTER_BOUND ( 'NONE', #17, .T. ) ;
#115 = FACE_OUTER_BOUND ( 'NONE', #170, .T. ) ;
#116 = DIRECTION ( 'NONE',  ( 0.000000000000000000, 0.000000000000000000, 1.000000000000000000 ) ) ;
#117 = ORIENTED_EDGE ( 'NONE', *, *, #36, .T. ) ;
#118 = CARTESIAN_POINT ( 'NONE',  ( 0.000000000000000000, 0.000000000000000000, 10.00000000000000000 ) ) ;
#119 = EDGE_CURVE ( 'NONE', #78, #362, #228, .T. ) ;
#120 = DIRECTION ( 'NONE',  ( 1.000000000000000000, 0.000000000000000000, 0.000000000000000000 ) ) ;
#121 = DIRECTION ( 'NONE',  ( 0.000000000000000000, 0.000000000000000000, 1.000000000000000000 ) ) ;
#122 = DIRECTION ( 'NONE',  ( 1.000000000000000000, 0.000000000000000000, 0.000000000000000000 ) ) ;
#123 =( NAMED_UNIT ( * ) PLANE_ANGLE_UNIT ( ) SI_UNIT ( $, .RADIAN. ) );
#124 = ORIENTED_EDGE ( 'NONE', *, *, #192, .T. ) ;
#125 = DESIGN_CONTEXT ( 'detailed design', #391, 'design' ) ;
#126 = EDGE_LOOP ( 'NONE', ( #41, #239, #128, #33 ) ) ;
#127 = PRODUCT ( 'bj401-04001', 'bj401-04001', '', ( #253 ) ) ;
#128 = ORIENTED_EDGE ( 'NONE', *, *, #259, .T. ) ;
#129 = CARTESIAN_POINT ( 'NONE',  ( 0.000000000000000000, 0.000000000000000000, 10.00000000000000000 ) ) ;
#130 = ORIENTED_EDGE ( 'NONE', *, *, #259, .F. ) ;
#131 = AXIS2_PLACEMENT_3D ( 'NONE', #20, #89, #276 ) ;
#132 = CARTESIAN_POINT ( 'NONE',  ( -2.250000000000000000, 2.755455298081544285E-16, -8.000000000000000000 ) ) ;
#133 = ORIENTED_EDGE ( 'NONE', *, *, #252, .T. ) ;
#134 = DIRECTION ( 'NONE',  ( 0.000000000000000000, 0.000000000000000000, 1.000000000000000000 ) ) ;
#135 = VERTEX_POINT ( 'NONE', #281 ) ;
#136 = AXIS2_PLACEMENT_3D ( 'NONE', #149, #211, #120 ) ;
#137 = AXIS2_PLACEMENT_3D ( 'NONE', #182, #363, #210 ) ;
#138 = COORDINATED_UNIVERSAL_TIME_OFFSET ( 9, 0, .AHEAD. ) ;
#139 = ORIENTED_EDGE ( 'NONE', *, *, #277, .F. ) ;
#140 = DIRECTION ( 'NONE',  ( 1.000000000000000000, 0.000000000000000000, 0.000000000000000000 ) ) ;
#141 = ORIENTED_EDGE ( 'NONE', *, *, #119, .F. ) ;
#142 = DIRECTION ( 'NONE',  ( 1.000000000000000000, 0.000000000000000000, 0.000000000000000000 ) ) ;
#143 = ADVANCED_FACE ( 'NONE', ( #273 ), #372, .F. ) ;
#144 = ORIENTED_EDGE ( 'NONE', *, *, #313, .T. ) ;
#145 = CIRCLE ( 'NONE', #292, 7.500000000000000000 ) ;
#146 = CARTESIAN_POINT ( 'NONE',  ( 2.250000000000000000, 0.000000000000000000, -8.000000000000000000 ) ) ;
#147 = EDGE_CURVE ( 'NONE', #28, #260, #213, .T. ) ;
#148 = DIRECTION ( 'NONE',  ( 1.000000000000000000, 0.000000000000000000, 0.000000000000000000 ) ) ;
#149 = CARTESIAN_POINT ( 'NONE',  ( 0.000000000000000000, 0.000000000000000000, 22.00000000000000000 ) ) ;
#150 = ORIENTED_EDGE ( 'NONE', *, *, #398, .T. ) ;
#151 = DIRECTION ( 'NONE',  ( -1.000000000000000000, 0.000000000000000000, 0.000000000000000000 ) ) ;
#152 = CARTESIAN_POINT ( 'NONE',  ( 0.000000000000000000, 0.000000000000000000, 22.00000000000000000 ) ) ;
#153 = APPLICATION_PROTOCOL_DEFINITION ( 'international standard', 'config_control_design', 1994, #42 ) ;
#154 = AXIS2_PLACEMENT_3D ( 'NONE', #152, #408, #315 ) ;
#155 = CARTESIAN_POINT ( 'NONE',  ( 0.000000000000000000, 0.000000000000000000, 0.000000000000000000 ) ) ;
#156 = AXIS2_PLACEMENT_3D ( 'NONE', #403, #92, #61 ) ;
#157 = DIRECTION ( 'NONE',  ( 0.000000000000000000, 0.000000000000000000, -1.000000000000000000 ) ) ;
#158 = ADVANCED_FACE ( 'NONE', ( #58 ), #304, .F. ) ;
#159 = VERTEX_POINT ( 'NONE', #93 ) ;
#160 = PERSON_AND_ORGANIZATION ( #68, #79 ) ;
#161 = DIRECTION ( 'NONE',  ( 1.000000000000000000, 0.000000000000000000, 0.000000000000000000 ) ) ;
#162 = ADVANCED_FACE ( 'NONE', ( #377 ), #218, .F. ) ;
#163 = COORDINATED_UNIVERSAL_TIME_OFFSET ( 9, 0, .AHEAD. ) ;
#164 = PERSON_AND_ORGANIZATION ( #68, #79 ) ;
#165 = EDGE_CURVE ( 'NONE', #331, #235, #248, .T. ) ;
#166 = DIRECTION ( 'NONE',  ( 0.000000000000000000, 0.000000000000000000, 1.000000000000000000 ) ) ;
#167 = VERTEX_POINT ( 'NONE', #256 ) ;
#168 = CIRCLE ( 'NONE', #400, 7.500000000000000000 ) ;
#169 = APPROVAL_STATUS ( 'not_yet_approved' ) ;
#170 = EDGE_LOOP ( 'NONE', ( #375, #112, #47, #130 ) ) ;
#171 = DATE_AND_TIME ( #356, #216 ) ;
#172 = ORIENTED_EDGE ( 'NONE', *, *, #344, .T. ) ;
#173 = DATE_TIME_ROLE ( 'classification_date' ) ;
#174 = VERTEX_POINT ( 'NONE', #98 ) ;
#175 = DIRECTION ( 'NONE',  ( 1.000000000000000000, 0.000000000000000000, 0.000000000000000000 ) ) ;
#176 = ORIENTED_EDGE ( 'NONE', *, *, #88, .F. ) ;
#177 = CARTESIAN_POINT ( 'NONE',  ( 0.000000000000000000, 0.000000000000000000, 22.00000000000000000 ) ) ;
#178 = DIRECTION ( 'NONE',  ( 1.000000000000000000, 0.000000000000000000, 0.000000000000000000 ) ) ;
#179 = AXIS2_PLACEMENT_3D ( 'NONE', #146, #310, #178 ) ;
#180 = CIRCLE ( 'NONE', #4, 4.000000000000000000 ) ;
#181 = FACE_BOUND ( 'NONE', #214, .T. ) ;
#182 = CARTESIAN_POINT ( 'NONE',  ( 0.000000000000000000, 0.000000000000000000, 22.00000000000000000 ) ) ;
#183 = PERSON_AND_ORGANIZATION_ROLE ( 'creator' ) ;
#184 = DIRECTION ( 'NONE',  ( 1.000000000000000000, 0.000000000000000000, 0.000000000000000000 ) ) ;
#185 = AXIS2_PLACEMENT_3D ( 'NONE', #270, #330, #54 ) ;
#186 = CC_DESIGN_APPROVAL ( #350, ( #23 ) ) ;
#187 = ORIENTED_EDGE ( 'NONE', *, *, #379, .T. ) ;
#188 = CC_DESIGN_DATE_AND_TIME_ASSIGNMENT ( #236, #173, ( #386 ) ) ;
#189 = ORIENTED_EDGE ( 'NONE', *, *, #326, .T. ) ;
#190 = EDGE_CURVE ( 'NONE', #45, #260, #30, .T. ) ;
#191 = PERSON_AND_ORGANIZATION ( #68, #79 ) ;
#192 = EDGE_CURVE ( 'NONE', #28, #327, #3, .T. ) ;
#193 = ORIENTED_EDGE ( 'NONE', *, *, #190, .T. ) ;
#194 = PERSON_AND_ORGANIZATION_ROLE ( 'classification_officer' ) ;
#195 = EDGE_CURVE ( 'NONE', #362, #78, #274, .T. ) ;
#196 = DIRECTION ( 'NONE',  ( 0.000000000000000000, 0.000000000000000000, 1.000000000000000000 ) ) ;
#197 = CARTESIAN_POINT ( 'NONE',  ( -7.500000000000000000, 9.184850993605147944E-16, 10.00000000000000000 ) ) ;
#198 = CALENDAR_DATE ( 2021, 25, 10 ) ;
#199 = MANIFOLD_SOLID_BREP ( 'Imported1', #290 ) ;
#200 = DIRECTION ( 'NONE',  ( 0.000000000000000000, 0.000000000000000000, 1.000000000000000000 ) ) ;
#201 = AXIS2_PLACEMENT_3D ( 'NONE', #247, #364, #90 ) ;
#202 = CARTESIAN_POINT ( 'NONE',  ( 5.000000000000000000, 0.000000000000000000, 0.000000000000000000 ) ) ;
#203 = ORIENTED_EDGE ( 'NONE', *, *, #25, .F. ) ;
#204 = DIRECTION ( 'NONE',  ( 1.000000000000000000, 0.000000000000000000, 0.000000000000000000 ) ) ;
#205 = ORIENTED_EDGE ( 'NONE', *, *, #277, .T. ) ;
#206 = AXIS2_PLACEMENT_3D ( 'NONE', #96, #63, #184 ) ;
#207 = CC_DESIGN_DATE_AND_TIME_ASSIGNMENT ( #6, #103, ( #23 ) ) ;
#208 = AXIS2_PLACEMENT_3D ( 'NONE', #288, #121, #161 ) ;
#209 = ADVANCED_FACE ( 'NONE', ( #296 ), #357, .T. ) ;
#210 = DIRECTION ( 'NONE',  ( 1.000000000000000000, 0.000000000000000000, 0.000000000000000000 ) ) ;
#211 = DIRECTION ( 'NONE',  ( 0.000000000000000000, 0.000000000000000000, 1.000000000000000000 ) ) ;
#212 = DIRECTION ( 'NONE',  ( 0.000000000000000000, 0.000000000000000000, 1.000000000000000000 ) ) ;
#213 = LINE ( 'NONE', #335, #385 ) ;
#214 = EDGE_LOOP ( 'NONE', ( #14, #172 ) ) ;
#215 = VECTOR ( 'NONE', #109, 1000.000000000000000 ) ;
#216 = LOCAL_TIME ( 8, 52, 20.00000000000000000, #138 ) ;
#217 = CARTESIAN_POINT ( 'NONE',  ( 0.000000000000000000, 0.000000000000000000, 5.000000000000000000 ) ) ;
#218 = CYLINDRICAL_SURFACE ( 'NONE', #206, 4.000000000000000000 ) ;
#219 = EDGE_LOOP ( 'NONE', ( #332, #18 ) ) ;
#220 = CARTESIAN_POINT ( 'NONE',  ( -7.500000000000000000, 9.184850993605147944E-16, 22.00000000000000000 ) ) ;
#221 = DIRECTION ( 'NONE',  ( 0.000000000000000000, 0.000000000000000000, 1.000000000000000000 ) ) ;
#222 = CC_DESIGN_PERSON_AND_ORGANIZATION_ASSIGNMENT ( #81, #194, ( #386 ) ) ;
#223 = CIRCLE ( 'NONE', #380, 5.000000000000000000 ) ;
#224 = UNCERTAINTY_MEASURE_WITH_UNIT (LENGTH_MEASURE( 1.000000000000000082E-05 ), #317, 'distance_accuracy_value', 'NONE');
#225 = CARTESIAN_POINT ( 'NONE',  ( 0.000000000000000000, 0.000000000000000000, 0.000000000000000000 ) ) ;
#226 = DIRECTION ( 'NONE',  ( -1.000000000000000000, 0.000000000000000000, 0.000000000000000000 ) ) ;
#227 = APPROVAL_ROLE ( '' ) ;
#228 = CIRCLE ( 'NONE', #201, 5.000000000000000000 ) ;
#229 = CARTESIAN_POINT ( 'NONE',  ( 0.000000000000000000, 0.000000000000000000, 0.000000000000000000 ) ) ;
#230 = ORIENTED_EDGE ( 'NONE', *, *, #147, .T. ) ;
#231 = ADVANCED_BREP_SHAPE_REPRESENTATION ( 'bj401-04001', ( #199, #208 ), #275 ) ;
#232 = AXIS2_PLACEMENT_3D ( 'NONE', #287, #74, #175 ) ;
#233 = AXIS2_PLACEMENT_3D ( 'NONE', #65, #157, #226 ) ;
#234 = EDGE_CURVE ( 'NONE', #293, #60, #318, .T. ) ;
#235 = VERTEX_POINT ( 'NONE', #202 ) ;
#236 = DATE_AND_TIME ( #261, #100 ) ;
#237 = CARTESIAN_POINT ( 'NONE',  ( -4.000000000000000000, 4.898587196589412829E-16, 22.00000000000000000 ) ) ;
#238 = CC_DESIGN_PERSON_AND_ORGANIZATION_ASSIGNMENT ( #5, #378, ( #127 ) ) ;
#239 = ORIENTED_EDGE ( 'NONE', *, *, #119, .T. ) ;
#240 = CARTESIAN_POINT ( 'NONE',  ( 0.000000000000000000, 0.000000000000000000, 22.00000000000000000 ) ) ;
#241 = VECTOR ( 'NONE', #91, 1000.000000000000000 ) ;
#242 = CIRCLE ( 'NONE', #340, 4.000000000000000000 ) ;
#243 = LOCAL_TIME ( 8, 52, 20.00000000000000000, #389 ) ;
#244 = DIRECTION ( 'NONE',  ( 0.000000000000000000, 0.000000000000000000, 1.000000000000000000 ) ) ;
#245 = DIRECTION ( 'NONE',  ( 0.000000000000000000, 0.000000000000000000, 1.000000000000000000 ) ) ;
#246 = CARTESIAN_POINT ( 'NONE',  ( 0.000000000000000000, 0.000000000000000000, 5.000000000000000000 ) ) ;
#247 = CARTESIAN_POINT ( 'NONE',  ( 0.000000000000000000, 0.000000000000000000, -8.000000000000000000 ) ) ;
#248 = CIRCLE ( 'NONE', #9, 5.000000000000000000 ) ;
#249 = ORIENTED_EDGE ( 'NONE', *, *, #234, .F. ) ;
#250 = CARTESIAN_POINT ( 'NONE',  ( 4.000000000000000000, 0.000000000000000000, 5.000000000000000000 ) ) ;
#251 = FACE_OUTER_BOUND ( 'NONE', #7, .T. ) ;
#252 = EDGE_CURVE ( 'NONE', #342, #159, #38, .T. ) ;
#253 = MECHANICAL_CONTEXT ( 'NONE', #42, 'mechanical' ) ;
#254 = PRODUCT_DEFINITION_SHAPE ( 'NONE', 'NONE',  #23 ) ;
#255 = ADVANCED_FACE ( 'NONE', ( #360, #107 ), #83, .F. ) ;
#256 = CARTESIAN_POINT ( 'NONE',  ( -2.250000000000000000, 2.755455298081544285E-16, 5.000000000000000000 ) ) ;
#257 = ORIENTED_EDGE ( 'NONE', *, *, #326, .F. ) ;
#258 = DIRECTION ( 'NONE',  ( 0.000000000000000000, 0.000000000000000000, 1.000000000000000000 ) ) ;
#259 = EDGE_CURVE ( 'NONE', #362, #235, #309, .T. ) ;
#260 = VERTEX_POINT ( 'NONE', #406 ) ;
#261 = CALENDAR_DATE ( 2021, 25, 10 ) ;
#262 = CIRCLE ( 'NONE', #85, 2.250000000000000000 ) ;
#263 = CC_DESIGN_APPROVAL ( #12, ( #386 ) ) ;
#264 = FACE_OUTER_BOUND ( 'NONE', #405, .T. ) ;
#265 = LINE ( 'NONE', #237, #106 ) ;
#266 = AXIS2_PLACEMENT_3D ( 'NONE', #240, #87, #35 ) ;
#267 = APPROVAL_PERSON_ORGANIZATION ( #49, #306, #53 ) ;
#268 = LINE ( 'NONE', #397, #215 ) ;
#269 = LINE ( 'NONE', #220, #324 ) ;
#270 = CARTESIAN_POINT ( 'NONE',  ( 0.000000000000000000, 0.000000000000000000, 5.000000000000000000 ) ) ;
#271 = EDGE_LOOP ( 'NONE', ( #308, #193 ) ) ;
#272 = DIRECTION ( 'NONE',  ( 1.000000000000000000, 0.000000000000000000, 0.000000000000000000 ) ) ;
#273 = FACE_OUTER_BOUND ( 'NONE', #395, .T. ) ;
#274 = CIRCLE ( 'NONE', #373, 5.000000000000000000 ) ;
#275 =( GEOMETRIC_REPRESENTATION_CONTEXT ( 3 ) GLOBAL_UNCERTAINTY_ASSIGNED_CONTEXT ( ( #224 ) ) GLOBAL_UNIT_ASSIGNED_CONTEXT ( ( #317, #123, #348 ) ) REPRESENTATION_CONTEXT ( 'NONE', 'WORKASPACE' ) );
#276 = DIRECTION ( 'NONE',  ( 1.000000000000000000, 0.000000000000000000, 0.000000000000000000 ) ) ;
#277 = EDGE_CURVE ( 'NONE', #359, #167, #262, .T. ) ;
#278 = CARTESIAN_POINT ( 'NONE',  ( -7.500000000000000000, 9.184850993605147944E-16, 0.000000000000000000 ) ) ;
#279 = EDGE_LOOP ( 'NONE', ( #22, #329, #295, #189 ) ) ;
#280 = CARTESIAN_POINT ( 'NONE',  ( 2.250000000000000000, 0.000000000000000000, -8.000000000000000000 ) ) ;
#281 = CARTESIAN_POINT ( 'NONE',  ( -4.000000000000000000, 4.898587196589412829E-16, 5.000000000000000000 ) ) ;
#282 = AXIS2_PLACEMENT_3D ( 'NONE', #388, #358, #371 ) ;
#283 = CC_DESIGN_PERSON_AND_ORGANIZATION_ASSIGNMENT ( #191, #183, ( #23 ) ) ;
#284 = ADVANCED_FACE ( 'NONE', ( #115 ), #62, .T. ) ;
#285 = ORIENTED_EDGE ( 'NONE', *, *, #25, .T. ) ;
#286 = FACE_OUTER_BOUND ( 'NONE', #271, .T. ) ;
#287 = CARTESIAN_POINT ( 'NONE',  ( 0.000000000000000000, 0.000000000000000000, 10.00000000000000000 ) ) ;
#288 = CARTESIAN_POINT ( 'NONE',  ( 0.000000000000000000, 0.000000000000000000, 0.000000000000000000 ) ) ;
#289 = EDGE_CURVE ( 'NONE', #135, #174, #242, .T. ) ;
#290 = CLOSED_SHELL ( 'NONE', ( #209, #284, #143, #158, #407, #162, #338, #77, #72, #384, #255, #66 ) ) ;
#291 = CC_DESIGN_PERSON_AND_ORGANIZATION_ASSIGNMENT ( #19, #73, ( #48 ) ) ;
#292 = AXIS2_PLACEMENT_3D ( 'NONE', #225, #258, #343 ) ;
#293 = VERTEX_POINT ( 'NONE', #280 ) ;
#294 = APPROVAL_STATUS ( 'not_yet_approved' ) ;
#295 = ORIENTED_EDGE ( 'NONE', *, *, #88, .T. ) ;
#296 = FACE_OUTER_BOUND ( 'NONE', #52, .T. ) ;
#297 = SECURITY_CLASSIFICATION_LEVEL ( 'unclassified' ) ;
#298 = DIRECTION ( 'NONE',  ( 1.000000000000000000, 0.000000000000000000, 0.000000000000000000 ) ) ;
#299 = ORIENTED_EDGE ( 'NONE', *, *, #59, .F. ) ;
#300 = AXIS2_PLACEMENT_3D ( 'NONE', #129, #134, #298 ) ;
#301 = CARTESIAN_POINT ( 'NONE',  ( -4.000000000000000000, 4.898587196589412829E-16, 10.00000000000000000 ) ) ;
#302 = ORIENTED_EDGE ( 'NONE', *, *, #344, .F. ) ;
#303 = EDGE_CURVE ( 'NONE', #260, #45, #168, .T. ) ;
#304 = CYLINDRICAL_SURFACE ( 'NONE', #136, 4.000000000000000000 ) ;
#305 = CARTESIAN_POINT ( 'NONE',  ( 2.250000000000000000, 0.000000000000000000, 5.000000000000000000 ) ) ;
#306 = APPROVAL ( #169, 'UNSPECIFIED' ) ;
#307 = VECTOR ( 'NONE', #11, 1000.000000000000000 ) ;
#308 = ORIENTED_EDGE ( 'NONE', *, *, #303, .T. ) ;
#309 = LINE ( 'NONE', #95, #347 ) ;
#310 = DIRECTION ( 'NONE',  ( 0.000000000000000000, 0.000000000000000000, 1.000000000000000000 ) ) ;
#311 = ORIENTED_EDGE ( 'NONE', *, *, #190, .F. ) ;
#312 = DIRECTION ( 'NONE',  ( 0.000000000000000000, 0.000000000000000000, 1.000000000000000000 ) ) ;
#313 = EDGE_CURVE ( 'NONE', #235, #331, #223, .T. ) ;
#314 = CALENDAR_DATE ( 2021, 25, 10 ) ;
#315 = DIRECTION ( 'NONE',  ( 1.000000000000000000, 0.000000000000000000, 0.000000000000000000 ) ) ;
#316 = APPLICATION_PROTOCOL_DEFINITION ( 'international standard', 'config_control_design', 1994, #391 ) ;
#317 =( LENGTH_UNIT ( ) NAMED_UNIT ( * ) SI_UNIT ( .MILLI., .METRE. ) );
#318 = CIRCLE ( 'NONE', #71, 2.250000000000000000 ) ;
#319 = AXIS2_PLACEMENT_3D ( 'NONE', #250, #56, #151 ) ;
#320 = EDGE_LOOP ( 'NONE', ( #139, #104 ) ) ;
#321 = EDGE_CURVE ( 'NONE', #327, #45, #269, .T. ) ;
#322 = CARTESIAN_POINT ( 'NONE',  ( -2.250000000000000000, 2.755455298081544285E-16, 22.00000000000000000 ) ) ;
#323 = APPROVAL_DATE_TIME ( #171, #12 ) ;
#324 = VECTOR ( 'NONE', #396, 1000.000000000000000 ) ;
#325 = CARTESIAN_POINT ( 'NONE',  ( 0.000000000000000000, 0.000000000000000000, 22.00000000000000000 ) ) ;
#326 = EDGE_CURVE ( 'NONE', #159, #342, #180, .T. ) ;
#327 = VERTEX_POINT ( 'NONE', #278 ) ;
#328 = DIRECTION ( 'NONE',  ( 1.000000000000000000, 0.000000000000000000, 0.000000000000000000 ) ) ;
#329 = ORIENTED_EDGE ( 'NONE', *, *, #379, .F. ) ;
#330 = DIRECTION ( 'NONE',  ( 0.000000000000000000, 0.000000000000000000, 1.000000000000000000 ) ) ;
#331 = VERTEX_POINT ( 'NONE', #399 ) ;
#332 = ORIENTED_EDGE ( 'NONE', *, *, #192, .F. ) ;
#333 = PLANE ( 'NONE',  #319 ) ;
#334 = CARTESIAN_POINT ( 'NONE',  ( 0.000000000000000000, 0.000000000000000000, 5.000000000000000000 ) ) ;
#335 = CARTESIAN_POINT ( 'NONE',  ( 7.500000000000000000, 0.000000000000000000, 22.00000000000000000 ) ) ;
#336 = AXIS2_PLACEMENT_3D ( 'NONE', #229, #200, #387 ) ;
#337 = FACE_OUTER_BOUND ( 'NONE', #126, .T. ) ;
#338 = ADVANCED_FACE ( 'NONE', ( #113, #367 ), #333, .F. ) ;
#339 = PLANE ( 'NONE',  #233 ) ;
#340 = AXIS2_PLACEMENT_3D ( 'NONE', #334, #245, #57 ) ;
#341 = PRODUCT_RELATED_PRODUCT_CATEGORY ( 'detail', '', ( #127 ) ) ;
#342 = VERTEX_POINT ( 'NONE', #301 ) ;
#343 = DIRECTION ( 'NONE',  ( 1.000000000000000000, 0.000000000000000000, 0.000000000000000000 ) ) ;
#344 = EDGE_CURVE ( 'NONE', #60, #293, #365, .T. ) ;
#345 = EDGE_LOOP ( 'NONE', ( #187, #108 ) ) ;
#346 = DATE_AND_TIME ( #102, #393 ) ;
#347 = VECTOR ( 'NONE', #212, 1000.000000000000000 ) ;
#348 =( NAMED_UNIT ( * ) SI_UNIT ( $, .STERADIAN. ) SOLID_ANGLE_UNIT ( ) );
#349 = LOCAL_TIME ( 8, 52, 20.00000000000000000, #163 ) ;
#350 = APPROVAL ( #409, 'UNSPECIFIED' ) ;
#351 = PERSON_AND_ORGANIZATION_ROLE ( 'creator' ) ;
#352 = CARTESIAN_POINT ( 'NONE',  ( 0.000000000000000000, 0.000000000000000000, -8.000000000000000000 ) ) ;
#353 = EDGE_LOOP ( 'NONE', ( #369, #117, #133, #176 ) ) ;
#354 = APPROVAL_DATE_TIME ( #44, #306 ) ;
#355 = ORIENTED_EDGE ( 'NONE', *, *, #15, .T. ) ;
#356 = CALENDAR_DATE ( 2021, 25, 10 ) ;
#357 = CYLINDRICAL_SURFACE ( 'NONE', #99, 7.500000000000000000 ) ;
#358 = DIRECTION ( 'NONE',  ( 0.000000000000000000, 0.000000000000000000, 1.000000000000000000 ) ) ;
#359 = VERTEX_POINT ( 'NONE', #305 ) ;
#360 = FACE_OUTER_BOUND ( 'NONE', #219, .T. ) ;
#361 = LINE ( 'NONE', #322, #307 ) ;
#362 = VERTEX_POINT ( 'NONE', #29 ) ;
#363 = DIRECTION ( 'NONE',  ( 0.000000000000000000, 0.000000000000000000, 1.000000000000000000 ) ) ;
#364 = DIRECTION ( 'NONE',  ( 0.000000000000000000, 0.000000000000000000, 1.000000000000000000 ) ) ;
#365 = CIRCLE ( 'NONE', #156, 2.250000000000000000 ) ;
#366 = CC_DESIGN_PERSON_AND_ORGANIZATION_ASSIGNMENT ( #164, #351, ( #48 ) ) ;
#367 = FACE_OUTER_BOUND ( 'NONE', #345, .T. ) ;
#368 = CARTESIAN_POINT ( 'NONE',  ( 4.000000000000000000, 0.000000000000000000, 22.00000000000000000 ) ) ;
#369 = ORIENTED_EDGE ( 'NONE', *, *, #289, .F. ) ;
#370 = CARTESIAN_POINT ( 'NONE',  ( 0.000000000000000000, 0.000000000000000000, 10.00000000000000000 ) ) ;
#371 = DIRECTION ( 'NONE',  ( 1.000000000000000000, 0.000000000000000000, 0.000000000000000000 ) ) ;
#372 = CYLINDRICAL_SURFACE ( 'NONE', #154, 2.250000000000000000 ) ;
#373 = AXIS2_PLACEMENT_3D ( 'NONE', #352, #196, #204 ) ;
#374 = APPROVAL_PERSON_ORGANIZATION ( #160, #350, #227 ) ;
#375 = ORIENTED_EDGE ( 'NONE', *, *, #195, .T. ) ;
#376 = CARTESIAN_POINT ( 'NONE',  ( 0.000000000000000000, 0.000000000000000000, 0.000000000000000000 ) ) ;
#377 = FACE_OUTER_BOUND ( 'NONE', #279, .T. ) ;
#378 = PERSON_AND_ORGANIZATION_ROLE ( 'design_owner' ) ;
#379 = EDGE_CURVE ( 'NONE', #174, #135, #401, .T. ) ;
#380 = AXIS2_PLACEMENT_3D ( 'NONE', #376, #27, #142 ) ;
#381 = VECTOR ( 'NONE', #40, 1000.000000000000000 ) ;
#382 = CARTESIAN_POINT ( 'NONE',  ( -5.000000000000000000, 6.123233995736766282E-16, 22.00000000000000000 ) ) ;
#383 = COORDINATED_UNIVERSAL_TIME_OFFSET ( 9, 0, .AHEAD. ) ;
#384 = ADVANCED_FACE ( 'NONE', ( #337 ), #24, .T. ) ;
#385 = VECTOR ( 'NONE', #221, 1000.000000000000000 ) ;
#386 = SECURITY_CLASSIFICATION ( '', '', #297 ) ;
#387 = DIRECTION ( 'NONE',  ( 1.000000000000000000, 0.000000000000000000, 0.000000000000000000 ) ) ;
#388 = CARTESIAN_POINT ( 'NONE',  ( 0.000000000000000000, 0.000000000000000000, 22.00000000000000000 ) ) ;
#389 = COORDINATED_UNIVERSAL_TIME_OFFSET ( 9, 0, .AHEAD. ) ;
#390 = CARTESIAN_POINT ( 'NONE',  ( 7.500000000000000000, 0.000000000000000000, 0.000000000000000000 ) ) ;
#391 = APPLICATION_CONTEXT ( 'configuration controlled 3d designs of mechanical parts and assemblies' ) ;
#392 = CIRCLE ( 'NONE', #185, 2.250000000000000000 ) ;
#393 = LOCAL_TIME ( 8, 52, 20.00000000000000000, #383 ) ;
#394 = ORIENTED_EDGE ( 'NONE', *, *, #165, .T. ) ;
#395 = EDGE_LOOP ( 'NONE', ( #302, #51, #355, #203 ) ) ;
#396 = DIRECTION ( 'NONE',  ( 0.000000000000000000, 0.000000000000000000, 1.000000000000000000 ) ) ;
#397 = CARTESIAN_POINT ( 'NONE',  ( 2.250000000000000000, 0.000000000000000000, 22.00000000000000000 ) ) ;
#398 = EDGE_CURVE ( 'NONE', #327, #28, #145, .T. ) ;
#399 = CARTESIAN_POINT ( 'NONE',  ( -5.000000000000000000, 6.123233995736766282E-16, 0.000000000000000000 ) ) ;
#400 = AXIS2_PLACEMENT_3D ( 'NONE', #118, #34, #148 ) ;
#401 = CIRCLE ( 'NONE', #39, 4.000000000000000000 ) ;
#402 = EDGE_CURVE ( 'NONE', #78, #331, #97, .T. ) ;
#403 = CARTESIAN_POINT ( 'NONE',  ( 0.000000000000000000, 0.000000000000000000, -8.000000000000000000 ) ) ;
#404 = CYLINDRICAL_SURFACE ( 'NONE', #266, 2.250000000000000000 ) ;
#405 = EDGE_LOOP ( 'NONE', ( #67, #150, #230, #311 ) ) ;
#406 = CARTESIAN_POINT ( 'NONE',  ( 7.500000000000000000, 0.000000000000000000, 10.00000000000000000 ) ) ;
#407 = ADVANCED_FACE ( 'NONE', ( #101, #286 ), #339, .F. ) ;
#408 = DIRECTION ( 'NONE',  ( 0.000000000000000000, 0.000000000000000000, 1.000000000000000000 ) ) ;
#409 = APPROVAL_STATUS ( 'not_yet_approved' ) ;
ENDSEC;
END-ISO-10303-21;
