ISO-10303-21;
HEADER;
FILE_DESCRIPTION (( 'STEP AP203' ),
    '1' );
FILE_NAME ('bj733-10180.STEP',
    '2021-10-25T00:01:55',
    ( '' ),
    ( '' ),
    'SwSTEP 2.0',
    'SolidWorks 2020',
    '' );
FILE_SCHEMA (( 'CONFIG_CONTROL_DESIGN' ));
ENDSEC;

DATA;
#1 = DIRECTION ( 'NONE',  ( 1.000000000000000000, 0.000000000000000000, 0.000000000000000000 ) ) ;
#2 = ORIENTED_EDGE ( 'NONE', *, *, #77, .T. ) ;
#3 = DIRECTION ( 'NONE',  ( 0.000000000000000000, 0.000000000000000000, 1.000000000000000000 ) ) ;
#4 = CIRCLE ( 'NONE', #107, 5.000000000000000000 ) ;
#5 = PERSON_AND_ORGANIZATION ( #309, #37 ) ;
#6 = ORIENTED_EDGE ( 'NONE', *, *, #45, .T. ) ;
#7 = ORIENTED_EDGE ( 'NONE', *, *, #273, .F. ) ;
#8 = VECTOR ( 'NONE', #265, 1000.000000000000114 ) ;
#9 = ORIENTED_EDGE ( 'NONE', *, *, #339, .T. ) ;
#10 = COORDINATED_UNIVERSAL_TIME_OFFSET ( 9, 0, .AHEAD. ) ;
#11 = ORIENTED_EDGE ( 'NONE', *, *, #163, .T. ) ;
#12 = CARTESIAN_POINT ( 'NONE',  ( -5.000000000000000000, 6.123233995736766282E-16, 50.00000000000000000 ) ) ;
#13 = ADVANCED_FACE ( 'NONE', ( #341 ), #96, .T. ) ;
#14 = CARTESIAN_POINT ( 'NONE',  ( 0.000000000000000000, 0.000000000000000000, 0.000000000000000000 ) ) ;
#15 = DIRECTION ( 'NONE',  ( 1.000000000000000000, 0.000000000000000000, 0.000000000000000000 ) ) ;
#16 = DIRECTION ( 'NONE',  ( 0.000000000000000000, 0.000000000000000000, 1.000000000000000000 ) ) ;
#17 = APPROVAL_PERSON_ORGANIZATION ( #247, #81, #95 ) ;
#18 = FACE_OUTER_BOUND ( 'NONE', #246, .T. ) ;
#19 = CIRCLE ( 'NONE', #214, 5.000000000000000000 ) ;
#20 = DIRECTION ( 'NONE',  ( 0.000000000000000000, 0.000000000000000000, 1.000000000000000000 ) ) ;
#21 = EDGE_CURVE ( 'NONE', #125, #267, #153, .T. ) ;
#22 = DIRECTION ( 'NONE',  ( 1.000000000000000000, 0.000000000000000000, 0.000000000000000000 ) ) ;
#23 = ORIENTED_EDGE ( 'NONE', *, *, #105, .F. ) ;
#24 = ADVANCED_FACE ( 'NONE', ( #337 ), #39, .T. ) ;
#25 = CARTESIAN_POINT ( 'NONE',  ( 0.000000000000000000, 0.000000000000000000, -9.000000000000000000 ) ) ;
#26 = DIRECTION ( 'NONE',  ( 0.000000000000000000, 0.000000000000000000, -1.000000000000000000 ) ) ;
#27 = CIRCLE ( 'NONE', #288, 15.00000000000000000 ) ;
#28 = DIRECTION ( 'NONE',  ( 1.000000000000000000, 0.000000000000000000, 0.000000000000000000 ) ) ;
#29 = PRODUCT ( 'bj733-10180', 'bj733-10180', '', ( #76 ) ) ;
#30 = APPROVAL_DATE_TIME ( #223, #81 ) ;
#31 = AXIS2_PLACEMENT_3D ( 'NONE', #207, #316, #155 ) ;
#32 = ORIENTED_EDGE ( 'NONE', *, *, #21, .F. ) ;
#33 = ADVANCED_FACE ( 'NONE', ( #68 ), #284, .F. ) ;
#34 = CALENDAR_DATE ( 2021, 25, 10 ) ;
#35 = ORIENTED_EDGE ( 'NONE', *, *, #264, .T. ) ;
#36 = ORIENTED_EDGE ( 'NONE', *, *, #163, .F. ) ;
#37 = ORGANIZATION ( 'UNSPECIFIED', 'UNSPECIFIED', '' ) ;
#38 = COORDINATED_UNIVERSAL_TIME_OFFSET ( 9, 0, .AHEAD. ) ;
#39 = CYLINDRICAL_SURFACE ( 'NONE', #133, 5.000000000000000000 ) ;
#40 = EDGE_CURVE ( 'NONE', #121, #55, #286, .T. ) ;
#41 = EDGE_LOOP ( 'NONE', ( #220, #90, #172, #211 ) ) ;
#42 = CC_DESIGN_DATE_AND_TIME_ASSIGNMENT ( #92, #142, ( #143 ) ) ;
#43 = CARTESIAN_POINT ( 'NONE',  ( 15.00000000000000000, 0.000000000000000000, 4.999999999999480416 ) ) ;
#44 = DIRECTION ( 'NONE',  ( 0.000000000000000000, 0.000000000000000000, 1.000000000000000000 ) ) ;
#45 = EDGE_CURVE ( 'NONE', #174, #343, #156, .T. ) ;
#46 = CARTESIAN_POINT ( 'NONE',  ( 0.000000000000000000, 0.000000000000000000, -5.204170427930419264E-13 ) ) ;
#47 = DIRECTION ( 'NONE',  ( -0.000000000000000000, -0.000000000000000000, 1.000000000000000000 ) ) ;
#48 = AXIS2_PLACEMENT_3D ( 'NONE', #209, #106, #111 ) ;
#49 = CARTESIAN_POINT ( 'NONE',  ( -15.00000000000000000, 1.836970198721029589E-15, 50.00000000000000000 ) ) ;
#50 = CIRCLE ( 'NONE', #31, 4.000000000000000000 ) ;
#51 = FACE_OUTER_BOUND ( 'NONE', #171, .T. ) ;
#52 = DIRECTION ( 'NONE',  ( 0.000000000000000000, 0.000000000000000000, 1.000000000000000000 ) ) ;
#53 = EDGE_LOOP ( 'NONE', ( #56, #330 ) ) ;
#54 = VECTOR ( 'NONE', #328, 1000.000000000000114 ) ;
#55 = VERTEX_POINT ( 'NONE', #43 ) ;
#56 = ORIENTED_EDGE ( 'NONE', *, *, #202, .T. ) ;
#57 = DIRECTION ( 'NONE',  ( -1.000000000000000000, 0.000000000000000000, 0.000000000000000000 ) ) ;
#58 = COORDINATED_UNIVERSAL_TIME_OFFSET ( 9, 0, .AHEAD. ) ;
#59 = VERTEX_POINT ( 'NONE', #201 ) ;
#60 = EDGE_CURVE ( 'NONE', #125, #343, #19, .T. ) ;
#61 = PERSON_AND_ORGANIZATION ( #309, #37 ) ;
#62 = ORIENTED_EDGE ( 'NONE', *, *, #218, .F. ) ;
#63 = EDGE_CURVE ( 'NONE', #174, #303, #50, .T. ) ;
#64 = ORIENTED_EDGE ( 'NONE', *, *, #339, .F. ) ;
#65 = PERSON_AND_ORGANIZATION_ROLE ( 'creator' ) ;
#66 = ORIENTED_EDGE ( 'NONE', *, *, #245, .F. ) ;
#67 = PRODUCT_DEFINITION_FORMATION_WITH_SPECIFIED_SOURCE ( 'ANY', '', #29, .NOT_KNOWN. ) ;
#68 = FACE_OUTER_BOUND ( 'NONE', #167, .T. ) ;
#69 = DIRECTION ( 'NONE',  ( 1.000000000000000000, 0.000000000000000000, 0.000000000000000000 ) ) ;
#70 = CARTESIAN_POINT ( 'NONE',  ( 5.000000000000000000, 0.000000000000000000, -9.000000000000000000 ) ) ;
#71 = CIRCLE ( 'NONE', #236, 15.00000000000000000 ) ;
#72 = DIRECTION ( 'NONE',  ( -1.000000000000000000, 0.000000000000000000, 0.000000000000000000 ) ) ;
#73 = CARTESIAN_POINT ( 'NONE',  ( 0.000000000000000000, 0.000000000000000000, 18.00000000000000000 ) ) ;
#74 = DIRECTION ( 'NONE',  ( 1.000000000000000000, 0.000000000000000000, 0.000000000000000000 ) ) ;
#75 = AXIS2_PLACEMENT_3D ( 'NONE', #84, #271, #28 ) ;
#76 = MECHANICAL_CONTEXT ( 'NONE', #260, 'mechanical' ) ;
#77 = EDGE_CURVE ( 'NONE', #343, #147, #178, .T. ) ;
#78 = CIRCLE ( 'NONE', #127, 15.00000000000000000 ) ;
#79 = CARTESIAN_POINT ( 'NONE',  ( 0.000000000000000000, 0.000000000000000000, 4.999999999999480416 ) ) ;
#80 = CARTESIAN_POINT ( 'NONE',  ( 0.000000000000000000, 0.000000000000000000, -10.00000000000000000 ) ) ;
#81 = APPROVAL ( #191, 'UNSPECIFIED' ) ;
#82 = AXIS2_PLACEMENT_3D ( 'NONE', #182, #20, #134 ) ;
#83 = AXIS2_PLACEMENT_3D ( 'NONE', #225, #87, #189 ) ;
#84 = CARTESIAN_POINT ( 'NONE',  ( 0.000000000000000000, 0.000000000000000000, 50.00000000000000000 ) ) ;
#85 = ORIENTED_EDGE ( 'NONE', *, *, #94, .F. ) ;
#86 = COORDINATED_UNIVERSAL_TIME_OFFSET ( 9, 0, .AHEAD. ) ;
#87 = DIRECTION ( 'NONE',  ( 0.000000000000000000, 0.000000000000000000, -1.000000000000000000 ) ) ;
#88 = VECTOR ( 'NONE', #3, 1000.000000000000000 ) ;
#89 = APPROVAL_STATUS ( 'not_yet_approved' ) ;
#90 = ORIENTED_EDGE ( 'NONE', *, *, #118, .T. ) ;
#91 = APPLICATION_CONTEXT ( 'configuration controlled 3d designs of mechanical parts and assemblies' ) ;
#92 = DATE_AND_TIME ( #34, #160 ) ;
#93 = CARTESIAN_POINT ( 'NONE',  ( 0.000000000000000000, 0.000000000000000000, 50.00000000000000000 ) ) ;
#94 = EDGE_CURVE ( 'NONE', #297, #224, #78, .T. ) ;
#95 = APPROVAL_ROLE ( '' ) ;
#96 = CYLINDRICAL_SURFACE ( 'NONE', #233, 5.000000000000000000 ) ;
#97 = EDGE_LOOP ( 'NONE', ( #136, #193, #6, #170 ) ) ;
#98 = AXIS2_PLACEMENT_3D ( 'NONE', #135, #327, #22 ) ;
#99 = PRODUCT_DEFINITION_SHAPE ( 'NONE', 'NONE',  #143 ) ;
#100 = CARTESIAN_POINT ( 'NONE',  ( 4.000000000000000000, 0.000000000000000000, -10.00000000000000000 ) ) ;
#101 = CARTESIAN_POINT ( 'NONE',  ( 0.000000000000000000, 0.000000000000000000, 18.00000000000000000 ) ) ;
#102 = DIRECTION ( 'NONE',  ( 1.000000000000000000, 0.000000000000000000, 0.000000000000000000 ) ) ;
#103 = CARTESIAN_POINT ( 'NONE',  ( 5.000000000000000000, 0.000000000000000000, 50.00000000000000000 ) ) ;
#104 = DIRECTION ( 'NONE',  ( 0.000000000000000000, 0.000000000000000000, -1.000000000000000000 ) ) ;
#105 = EDGE_CURVE ( 'NONE', #59, #121, #159, .T. ) ;
#106 = DIRECTION ( 'NONE',  ( 0.000000000000000000, 0.000000000000000000, 1.000000000000000000 ) ) ;
#107 = AXIS2_PLACEMENT_3D ( 'NONE', #14, #227, #102 ) ;
#108 = DIRECTION ( 'NONE',  ( -1.000000000000000000, 0.000000000000000000, 0.000000000000000000 ) ) ;
#109 = ORIENTED_EDGE ( 'NONE', *, *, #40, .F. ) ;
#110 = FACE_BOUND ( 'NONE', #53, .T. ) ;
#111 = DIRECTION ( 'NONE',  ( 1.000000000000000000, 0.000000000000000000, 0.000000000000000000 ) ) ;
#112 = ORIENTED_EDGE ( 'NONE', *, *, #94, .T. ) ;
#113 = CIRCLE ( 'NONE', #243, 5.000000000000000000 ) ;
#114 = CYLINDRICAL_SURFACE ( 'NONE', #75, 15.00000000000000000 ) ;
#115 = ADVANCED_FACE ( 'NONE', ( #293 ), #261, .T. ) ;
#116 = PERSON_AND_ORGANIZATION ( #309, #37 ) ;
#117 = PERSON_AND_ORGANIZATION ( #309, #37 ) ;
#118 = EDGE_CURVE ( 'NONE', #303, #125, #344, .T. ) ;
#119 = ORIENTED_EDGE ( 'NONE', *, *, #60, .T. ) ;
#120 = CC_DESIGN_APPROVAL ( #332, ( #67 ) ) ;
#121 = VERTEX_POINT ( 'NONE', #258 ) ;
#122 = DIRECTION ( 'NONE',  ( 0.000000000000000000, 0.000000000000000000, 1.000000000000000000 ) ) ;
#123 = CARTESIAN_POINT ( 'NONE',  ( 0.000000000000000000, 0.000000000000000000, 50.00000000000000000 ) ) ;
#124 = AXIS2_PLACEMENT_3D ( 'NONE', #314, #319, #259 ) ;
#125 = VERTEX_POINT ( 'NONE', #229 ) ;
#126 = DIRECTION ( 'NONE',  ( 0.000000000000000000, 0.000000000000000000, 1.000000000000000000 ) ) ;
#127 = AXIS2_PLACEMENT_3D ( 'NONE', #46, #290, #158 ) ;
#128 = CARTESIAN_POINT ( 'NONE',  ( -15.00000000000000000, 1.836970198721029589E-15, 4.999999999999480416 ) ) ;
#129 = CARTESIAN_POINT ( 'NONE',  ( -15.00000000000000000, 1.836970198721029589E-15, -5.204170427930419264E-13 ) ) ;
#130 = CIRCLE ( 'NONE', #304, 1.999999999999529932 ) ;
#131 = CC_DESIGN_APPROVAL ( #317, ( #143 ) ) ;
#132 = PLANE ( 'NONE',  #196 ) ;
#133 = AXIS2_PLACEMENT_3D ( 'NONE', #123, #313, #253 ) ;
#134 = DIRECTION ( 'NONE',  ( 1.000000000000000000, 0.000000000000000000, 0.000000000000000000 ) ) ;
#135 = CARTESIAN_POINT ( 'NONE',  ( 0.000000000000000000, 0.000000000000000000, 4.999999999999480416 ) ) ;
#136 = ORIENTED_EDGE ( 'NONE', *, *, #118, .F. ) ;
#137 = AXIS2_PLACEMENT_3D ( 'NONE', #166, #162, #210 ) ;
#138 = DIRECTION ( 'NONE',  ( 0.000000000000000000, 0.000000000000000000, 1.000000000000000000 ) ) ;
#139 = DIRECTION ( 'NONE',  ( 0.000000000000000000, 0.000000000000000000, 1.000000000000000000 ) ) ;
#140 = EDGE_LOOP ( 'NONE', ( #112, #11, #240, #66 ) ) ;
#141 = CARTESIAN_POINT ( 'NONE',  ( 15.00000000000000000, 0.000000000000000000, 50.00000000000000000 ) ) ;
#142 = DATE_TIME_ROLE ( 'creation_date' ) ;
#143 = PRODUCT_DEFINITION ( 'UNKNOWN', '', #67, #199 ) ;
#144 = PERSON_AND_ORGANIZATION_ROLE ( 'creator' ) ;
#145 = ORIENTED_EDGE ( 'NONE', *, *, #205, .F. ) ;
#146 = CALENDAR_DATE ( 2021, 25, 10 ) ;
#147 = VERTEX_POINT ( 'NONE', #345 ) ;
#148 = CALENDAR_DATE ( 2021, 25, 10 ) ;
#149 = CC_DESIGN_APPROVAL ( #81, ( #179 ) ) ;
#150 = ORIENTED_EDGE ( 'NONE', *, *, #273, .T. ) ;
#151 = CC_DESIGN_PERSON_AND_ORGANIZATION_ASSIGNMENT ( #276, #65, ( #143 ) ) ;
#152 = APPROVAL_STATUS ( 'not_yet_approved' ) ;
#153 = LINE ( 'NONE', #12, #338 ) ;
#154 = VERTEX_POINT ( 'NONE', #128 ) ;
#155 = DIRECTION ( 'NONE',  ( -1.000000000000000000, 0.000000000000000000, 0.000000000000000000 ) ) ;
#156 = LINE ( 'NONE', #70, #257 ) ;
#157 = FACE_OUTER_BOUND ( 'NONE', #222, .T. ) ;
#158 = DIRECTION ( 'NONE',  ( 1.000000000000000000, 0.000000000000000000, 0.000000000000000000 ) ) ;
#159 = CIRCLE ( 'NONE', #254, 1.999999999999529932 ) ;
#160 = LOCAL_TIME ( 9, 1, 55.00000000000000000, #38 ) ;
#161 = DIRECTION ( 'NONE',  ( 0.000000000000000000, 0.000000000000000000, 1.000000000000000000 ) ) ;
#162 = DIRECTION ( 'NONE',  ( -0.000000000000000000, -0.000000000000000000, 1.000000000000000000 ) ) ;
#163 = EDGE_CURVE ( 'NONE', #224, #154, #180, .T. ) ;
#164 = EDGE_CURVE ( 'NONE', #55, #154, #71, .T. ) ;
#165 =( NAMED_UNIT ( * ) SI_UNIT ( $, .STERADIAN. ) SOLID_ANGLE_UNIT ( ) );
#166 = CARTESIAN_POINT ( 'NONE',  ( 0.000000000000000000, 0.000000000000000000, -9.000000000000000000 ) ) ;
#167 = EDGE_LOOP ( 'NONE', ( #187, #250 ) ) ;
#168 = CIRCLE ( 'NONE', #203, 4.000000000000000000 ) ;
#169 = CALENDAR_DATE ( 2021, 25, 10 ) ;
#170 = ORIENTED_EDGE ( 'NONE', *, *, #60, .F. ) ;
#171 = EDGE_LOOP ( 'NONE', ( #85, #7 ) ) ;
#172 = ORIENTED_EDGE ( 'NONE', *, *, #287, .F. ) ;
#173 = APPROVAL_ROLE ( '' ) ;
#174 = VERTEX_POINT ( 'NONE', #100 ) ;
#175 = VECTOR ( 'NONE', #234, 1000.000000000000114 ) ;
#176 = ORIENTED_EDGE ( 'NONE', *, *, #21, .T. ) ;
#177 = DIRECTION ( 'NONE',  ( 1.000000000000000000, 0.000000000000000000, 0.000000000000000000 ) ) ;
#178 = LINE ( 'NONE', #103, #226 ) ;
#179 = SECURITY_CLASSIFICATION ( '', '', #251 ) ;
#180 = LINE ( 'NONE', #49, #230 ) ;
#181 = CARTESIAN_POINT ( 'NONE',  ( 0.000000000000000000, 0.000000000000000000, 0.000000000000000000 ) ) ;
#182 = CARTESIAN_POINT ( 'NONE',  ( 0.000000000000000000, 0.000000000000000000, -9.000000000000000000 ) ) ;
#183 = ADVANCED_FACE ( 'NONE', ( #292 ), #346, .T. ) ;
#184 = CARTESIAN_POINT ( 'NONE',  ( 5.000000000000000000, 0.000000000000000000, -9.000000000000000000 ) ) ;
#185 = PLANE ( 'NONE',  #48 ) ;
#186 = FACE_OUTER_BOUND ( 'NONE', #195, .T. ) ;
#187 = ORIENTED_EDGE ( 'NONE', *, *, #105, .T. ) ;
#188 = SHAPE_DEFINITION_REPRESENTATION ( #99, #256 ) ;
#189 = DIRECTION ( 'NONE',  ( -1.000000000000000000, 0.000000000000000000, 0.000000000000000000 ) ) ;
#190 = AXIS2_PLACEMENT_3D ( 'NONE', #262, #206, #74 ) ;
#191 = APPROVAL_STATUS ( 'not_yet_approved' ) ;
#192 = EDGE_LOOP ( 'NONE', ( #198, #176, #282, #334 ) ) ;
#193 = ORIENTED_EDGE ( 'NONE', *, *, #63, .F. ) ;
#194 = MANIFOLD_SOLID_BREP ( 'Imported1', #294 ) ;
#195 = EDGE_LOOP ( 'NONE', ( #36, #150, #275, #217 ) ) ;
#196 = AXIS2_PLACEMENT_3D ( 'NONE', #350, #104, #266 ) ;
#197 = APPROVAL_DATE_TIME ( #281, #332 ) ;
#198 = ORIENTED_EDGE ( 'NONE', *, *, #287, .T. ) ;
#199 = DESIGN_CONTEXT ( 'detailed design', #91, 'design' ) ;
#200 = DIRECTION ( 'NONE',  ( 1.000000000000000000, 0.000000000000000000, 0.000000000000000000 ) ) ;
#201 = CARTESIAN_POINT ( 'NONE',  ( -1.999999999999529932, 0.000000000000000000, 18.00000000000000000 ) ) ;
#202 = EDGE_CURVE ( 'NONE', #147, #267, #4, .T. ) ;
#203 = AXIS2_PLACEMENT_3D ( 'NONE', #80, #208, #108 ) ;
#204 = DIRECTION ( 'NONE',  ( 0.000000000000000000, 0.000000000000000000, 1.000000000000000000 ) ) ;
#205 = EDGE_CURVE ( 'NONE', #121, #59, #130, .T. ) ;
#206 = DIRECTION ( 'NONE',  ( 0.000000000000000000, 0.000000000000000000, 1.000000000000000000 ) ) ;
#207 = CARTESIAN_POINT ( 'NONE',  ( 0.000000000000000000, 0.000000000000000000, -10.00000000000000000 ) ) ;
#208 = DIRECTION ( 'NONE',  ( 0.000000000000000000, 0.000000000000000000, -1.000000000000000000 ) ) ;
#209 = CARTESIAN_POINT ( 'NONE',  ( 5.000000000000000000, 0.000000000000000000, 0.000000000000000000 ) ) ;
#210 = DIRECTION ( 'NONE',  ( -1.000000000000000000, 0.000000000000000000, 0.000000000000000000 ) ) ;
#211 = ORIENTED_EDGE ( 'NONE', *, *, #45, .F. ) ;
#212 = ADVANCED_FACE ( 'NONE', ( #157 ), #280, .T. ) ;
#213 = CARTESIAN_POINT ( 'NONE',  ( -4.000000000000000000, 5.510910596163088569E-16, -10.00000000000000000 ) ) ;
#214 = AXIS2_PLACEMENT_3D ( 'NONE', #318, #47, #72 ) ;
#215 = PERSON_AND_ORGANIZATION ( #309, #37 ) ;
#216 = APPROVAL_DATE_TIME ( #307, #317 ) ;
#217 = ORIENTED_EDGE ( 'NONE', *, *, #264, .F. ) ;
#218 = EDGE_CURVE ( 'NONE', #267, #147, #113, .T. ) ;
#219 = CONICAL_SURFACE ( 'NONE', #312, 5.000000000000000000, 0.7853981633974461696 ) ;
#220 = ORIENTED_EDGE ( 'NONE', *, *, #315, .F. ) ;
#221 = CC_DESIGN_PERSON_AND_ORGANIZATION_ASSIGNMENT ( #5, #144, ( #67 ) ) ;
#222 = EDGE_LOOP ( 'NONE', ( #145, #277, #248, #64 ) ) ;
#223 = DATE_AND_TIME ( #169, #232 ) ;
#224 = VERTEX_POINT ( 'NONE', #129 ) ;
#225 = CARTESIAN_POINT ( 'NONE',  ( 1.999999999999529932, 0.000000000000000000, 18.00000000000000000 ) ) ;
#226 = VECTOR ( 'NONE', #255, 1000.000000000000000 ) ;
#227 = DIRECTION ( 'NONE',  ( 0.000000000000000000, 0.000000000000000000, 1.000000000000000000 ) ) ;
#228 = ADVANCED_FACE ( 'NONE', ( #18 ), #132, .T. ) ;
#229 = CARTESIAN_POINT ( 'NONE',  ( -5.000000000000000000, 6.123233995736766282E-16, -9.000000000000000000 ) ) ;
#230 = VECTOR ( 'NONE', #126, 1000.000000000000000 ) ;
#231 = CARTESIAN_POINT ( 'NONE',  ( 15.00000000000000000, 1.836970198721029589E-15, 4.999999999999480416 ) ) ;
#232 = LOCAL_TIME ( 9, 1, 55.00000000000000000, #10 ) ;
#233 = AXIS2_PLACEMENT_3D ( 'NONE', #93, #122, #311 ) ;
#234 = DIRECTION ( 'NONE',  ( 0.7071067811865460184, 8.659560562354913137E-17, -0.7071067811865489050 ) ) ;
#235 = CARTESIAN_POINT ( 'NONE',  ( -5.000000000000000000, 6.123233995736766282E-16, 0.000000000000000000 ) ) ;
#236 = AXIS2_PLACEMENT_3D ( 'NONE', #291, #161, #69 ) ;
#237 = ORIENTED_EDGE ( 'NONE', *, *, #315, .T. ) ;
#238 = ADVANCED_FACE ( 'NONE', ( #51, #110 ), #185, .F. ) ;
#239 = DIRECTION ( 'NONE',  ( 1.000000000000000000, 0.000000000000000000, 0.000000000000000000 ) ) ;
#240 = ORIENTED_EDGE ( 'NONE', *, *, #164, .F. ) ;
#241 = CC_DESIGN_PERSON_AND_ORGANIZATION_ASSIGNMENT ( #116, #333, ( #67 ) ) ;
#242 =( NAMED_UNIT ( * ) PLANE_ANGLE_UNIT ( ) SI_UNIT ( $, .RADIAN. ) );
#243 = AXIS2_PLACEMENT_3D ( 'NONE', #181, #16, #177 ) ;
#244 = PERSON_AND_ORGANIZATION ( #309, #37 ) ;
#245 = EDGE_CURVE ( 'NONE', #297, #55, #325, .T. ) ;
#246 = EDGE_LOOP ( 'NONE', ( #279, #237 ) ) ;
#247 = PERSON_AND_ORGANIZATION ( #309, #37 ) ;
#248 = ORIENTED_EDGE ( 'NONE', *, *, #164, .T. ) ;
#249 = CONICAL_SURFACE ( 'NONE', #347, 15.00000000000000000, 0.7853981633974461696 ) ;
#250 = ORIENTED_EDGE ( 'NONE', *, *, #205, .T. ) ;
#251 = SECURITY_CLASSIFICATION_LEVEL ( 'unclassified' ) ;
#252 = EDGE_LOOP ( 'NONE', ( #109, #23, #9, #35 ) ) ;
#253 = DIRECTION ( 'NONE',  ( 1.000000000000000000, 0.000000000000000000, 0.000000000000000000 ) ) ;
#254 = AXIS2_PLACEMENT_3D ( 'NONE', #73, #44, #15 ) ;
#255 = DIRECTION ( 'NONE',  ( 0.000000000000000000, 0.000000000000000000, 1.000000000000000000 ) ) ;
#256 = ADVANCED_BREP_SHAPE_REPRESENTATION ( 'bj733-10180', ( #194, #352 ), #268 ) ;
#257 = VECTOR ( 'NONE', #348, 1000.000000000000114 ) ;
#258 = CARTESIAN_POINT ( 'NONE',  ( 1.999999999999529932, 1.040949779275219769E-15, 18.00000000000000000 ) ) ;
#259 = DIRECTION ( 'NONE',  ( -1.000000000000000000, 0.000000000000000000, 0.000000000000000000 ) ) ;
#260 = APPLICATION_CONTEXT ( 'configuration controlled 3d designs of mechanical parts and assemblies' ) ;
#261 = CONICAL_SURFACE ( 'NONE', #82, 5.000000000000000000, 0.7853981633974461696 ) ;
#262 = CARTESIAN_POINT ( 'NONE',  ( 0.000000000000000000, 0.000000000000000000, 50.00000000000000000 ) ) ;
#263 = LOCAL_TIME ( 9, 1, 55.00000000000000000, #336 ) ;
#264 = EDGE_CURVE ( 'NONE', #154, #55, #272, .T. ) ;
#265 = DIRECTION ( 'NONE',  ( -0.7071067811865460184, 8.659560562354913137E-17, 0.7071067811865489050 ) ) ;
#266 = DIRECTION ( 'NONE',  ( -1.000000000000000000, 0.000000000000000000, 0.000000000000000000 ) ) ;
#267 = VERTEX_POINT ( 'NONE', #235 ) ;
#268 =( GEOMETRIC_REPRESENTATION_CONTEXT ( 3 ) GLOBAL_UNCERTAINTY_ASSIGNED_CONTEXT ( ( #285 ) ) GLOBAL_UNIT_ASSIGNED_CONTEXT ( ( #301, #242, #165 ) ) REPRESENTATION_CONTEXT ( 'NONE', 'WORKASPACE' ) );
#269 = ADVANCED_FACE ( 'NONE', ( #186 ), #114, .T. ) ;
#270 = FACE_OUTER_BOUND ( 'NONE', #252, .T. ) ;
#271 = DIRECTION ( 'NONE',  ( 0.000000000000000000, 0.000000000000000000, 1.000000000000000000 ) ) ;
#272 = CIRCLE ( 'NONE', #98, 15.00000000000000000 ) ;
#273 = EDGE_CURVE ( 'NONE', #224, #297, #27, .T. ) ;
#274 = DATE_TIME_ROLE ( 'classification_date' ) ;
#275 = ORIENTED_EDGE ( 'NONE', *, *, #245, .T. ) ;
#276 = PERSON_AND_ORGANIZATION ( #309, #37 ) ;
#277 = ORIENTED_EDGE ( 'NONE', *, *, #40, .T. ) ;
#278 = PERSON_AND_ORGANIZATION_ROLE ( 'design_owner' ) ;
#279 = ORIENTED_EDGE ( 'NONE', *, *, #63, .T. ) ;
#280 = CONICAL_SURFACE ( 'NONE', #124, 15.00000000000000000, 0.7853981633974461696 ) ;
#281 = DATE_AND_TIME ( #146, #335 ) ;
#282 = ORIENTED_EDGE ( 'NONE', *, *, #202, .F. ) ;
#283 = APPLICATION_PROTOCOL_DEFINITION ( 'international standard', 'config_control_design', 1994, #91 ) ;
#284 = PLANE ( 'NONE',  #83 ) ;
#285 = UNCERTAINTY_MEASURE_WITH_UNIT (LENGTH_MEASURE( 1.000000000000000082E-05 ), #301, 'distance_accuracy_value', 'NONE');
#286 = LINE ( 'NONE', #231, #175 ) ;
#287 = EDGE_CURVE ( 'NONE', #343, #125, #322, .T. ) ;
#288 = AXIS2_PLACEMENT_3D ( 'NONE', #353, #138, #1 ) ;
#289 = CC_DESIGN_SECURITY_CLASSIFICATION ( #179, ( #67 ) ) ;
#290 = DIRECTION ( 'NONE',  ( 0.000000000000000000, 0.000000000000000000, 1.000000000000000000 ) ) ;
#291 = CARTESIAN_POINT ( 'NONE',  ( 0.000000000000000000, 0.000000000000000000, 4.999999999999480416 ) ) ;
#292 = FACE_OUTER_BOUND ( 'NONE', #140, .T. ) ;
#293 = FACE_OUTER_BOUND ( 'NONE', #97, .T. ) ;
#294 = CLOSED_SHELL ( 'NONE', ( #354, #212, #183, #24, #13, #238, #269, #326, #33, #228, #115 ) ) ;
#295 = CARTESIAN_POINT ( 'NONE',  ( 0.000000000000000000, 0.000000000000000000, 0.000000000000000000 ) ) ;
#296 = FACE_OUTER_BOUND ( 'NONE', #41, .T. ) ;
#297 = VERTEX_POINT ( 'NONE', #298 ) ;
#298 = CARTESIAN_POINT ( 'NONE',  ( 15.00000000000000000, 0.000000000000000000, -5.204170427930419264E-13 ) ) ;
#299 = APPROVAL_PERSON_ORGANIZATION ( #117, #332, #173 ) ;
#300 = CARTESIAN_POINT ( 'NONE',  ( -15.00000000000000000, 0.000000000000000000, 4.999999999999480416 ) ) ;
#301 =( LENGTH_UNIT ( ) NAMED_UNIT ( * ) SI_UNIT ( .MILLI., .METRE. ) );
#302 = CALENDAR_DATE ( 2021, 25, 10 ) ;
#303 = VERTEX_POINT ( 'NONE', #213 ) ;
#304 = AXIS2_PLACEMENT_3D ( 'NONE', #101, #204, #200 ) ;
#305 = PRODUCT_RELATED_PRODUCT_CATEGORY ( 'detail', '', ( #29 ) ) ;
#306 = APPROVAL_PERSON_ORGANIZATION ( #61, #317, #342 ) ;
#307 = DATE_AND_TIME ( #302, #323 ) ;
#308 = EDGE_LOOP ( 'NONE', ( #32, #119, #2, #62 ) ) ;
#309 = PERSON ( 'UNSPECIFIED', 'UNSPECIFIED', 'UNSPECIFIED', ('UNSPECIFIED'), ('UNSPECIFIED'), ('UNSPECIFIED') ) ;
#310 = DIRECTION ( 'NONE',  ( 0.000000000000000000, 0.000000000000000000, 1.000000000000000000 ) ) ;
#311 = DIRECTION ( 'NONE',  ( 1.000000000000000000, 0.000000000000000000, 0.000000000000000000 ) ) ;
#312 = AXIS2_PLACEMENT_3D ( 'NONE', #25, #52, #329 ) ;
#313 = DIRECTION ( 'NONE',  ( 0.000000000000000000, 0.000000000000000000, 1.000000000000000000 ) ) ;
#314 = CARTESIAN_POINT ( 'NONE',  ( 0.000000000000000000, 0.000000000000000000, 4.999999999999480416 ) ) ;
#315 = EDGE_CURVE ( 'NONE', #303, #174, #168, .T. ) ;
#316 = DIRECTION ( 'NONE',  ( 0.000000000000000000, 0.000000000000000000, -1.000000000000000000 ) ) ;
#317 = APPROVAL ( #89, 'UNSPECIFIED' ) ;
#318 = CARTESIAN_POINT ( 'NONE',  ( 0.000000000000000000, 0.000000000000000000, -9.000000000000000000 ) ) ;
#319 = DIRECTION ( 'NONE',  ( 0.000000000000000000, 0.000000000000000000, -1.000000000000000000 ) ) ;
#320 = CC_DESIGN_PERSON_AND_ORGANIZATION_ASSIGNMENT ( #244, #278, ( #29 ) ) ;
#321 = CARTESIAN_POINT ( 'NONE',  ( -5.000000000000000000, 6.123233995736766282E-16, -9.000000000000000000 ) ) ;
#322 = CIRCLE ( 'NONE', #137, 5.000000000000000000 ) ;
#323 = LOCAL_TIME ( 9, 1, 55.00000000000000000, #58 ) ;
#324 = LINE ( 'NONE', #300, #54 ) ;
#325 = LINE ( 'NONE', #141, #88 ) ;
#326 = ADVANCED_FACE ( 'NONE', ( #270 ), #249, .T. ) ;
#327 = DIRECTION ( 'NONE',  ( 0.000000000000000000, 0.000000000000000000, 1.000000000000000000 ) ) ;
#328 = DIRECTION ( 'NONE',  ( -0.7071067811865460184, 0.000000000000000000, -0.7071067811865489050 ) ) ;
#329 = DIRECTION ( 'NONE',  ( 1.000000000000000000, 0.000000000000000000, 0.000000000000000000 ) ) ;
#330 = ORIENTED_EDGE ( 'NONE', *, *, #218, .T. ) ;
#331 = PERSON_AND_ORGANIZATION_ROLE ( 'classification_officer' ) ;
#332 = APPROVAL ( #152, 'UNSPECIFIED' ) ;
#333 = PERSON_AND_ORGANIZATION_ROLE ( 'design_supplier' ) ;
#334 = ORIENTED_EDGE ( 'NONE', *, *, #77, .F. ) ;
#335 = LOCAL_TIME ( 9, 1, 55.00000000000000000, #86 ) ;
#336 = COORDINATED_UNIVERSAL_TIME_OFFSET ( 9, 0, .AHEAD. ) ;
#337 = FACE_OUTER_BOUND ( 'NONE', #192, .T. ) ;
#338 = VECTOR ( 'NONE', #310, 1000.000000000000000 ) ;
#339 = EDGE_CURVE ( 'NONE', #59, #154, #324, .T. ) ;
#340 = DATE_AND_TIME ( #148, #263 ) ;
#341 = FACE_OUTER_BOUND ( 'NONE', #308, .T. ) ;
#342 = APPROVAL_ROLE ( '' ) ;
#343 = VERTEX_POINT ( 'NONE', #184 ) ;
#344 = LINE ( 'NONE', #321, #8 ) ;
#345 = CARTESIAN_POINT ( 'NONE',  ( 5.000000000000000000, 0.000000000000000000, 0.000000000000000000 ) ) ;
#346 = CYLINDRICAL_SURFACE ( 'NONE', #190, 15.00000000000000000 ) ;
#347 = AXIS2_PLACEMENT_3D ( 'NONE', #79, #26, #57 ) ;
#348 = DIRECTION ( 'NONE',  ( 0.7071067811865460184, 0.000000000000000000, 0.7071067811865489050 ) ) ;
#349 = CC_DESIGN_PERSON_AND_ORGANIZATION_ASSIGNMENT ( #215, #331, ( #179 ) ) ;
#350 = CARTESIAN_POINT ( 'NONE',  ( 5.000000000000000000, 0.000000000000000000, -10.00000000000000000 ) ) ;
#351 = APPLICATION_PROTOCOL_DEFINITION ( 'international standard', 'config_control_design', 1994, #260 ) ;
#352 = AXIS2_PLACEMENT_3D ( 'NONE', #295, #139, #239 ) ;
#353 = CARTESIAN_POINT ( 'NONE',  ( 0.000000000000000000, 0.000000000000000000, -5.204170427930419264E-13 ) ) ;
#354 = ADVANCED_FACE ( 'NONE', ( #296 ), #219, .T. ) ;
#355 = CC_DESIGN_DATE_AND_TIME_ASSIGNMENT ( #340, #274, ( #179 ) ) ;
ENDSEC;
END-ISO-10303-21;
