ISO-10303-21;
HEADER;
FILE_DESCRIPTION (( 'STEP AP203' ),
    '1' );
FILE_NAME ('bj300-10025.STEP',
    '2021-10-24T23:51:03',
    ( '' ),
    ( '' ),
    'SwSTEP 2.0',
    'SolidWorks 2020',
    '' );
FILE_SCHEMA (( 'CONFIG_CONTROL_DESIGN' ));
ENDSEC;

DATA;
#1 = DIRECTION ( 'NONE',  ( 1.000000000000000000, 0.000000000000000000, 0.000000000000000000 ) ) ;
#2 = EDGE_CURVE ( 'NONE', #252, #148, #110, .T. ) ;
#3 = AXIS2_PLACEMENT_3D ( 'NONE', #291, #161, #1 ) ;
#4 = CARTESIAN_POINT ( 'NONE',  ( 0.000000000000000000, 0.000000000000000000, 0.000000000000000000 ) ) ;
#5 = ORIENTED_EDGE ( 'NONE', *, *, #275, .F. ) ;
#6 = DATE_AND_TIME ( #118, #43 ) ;
#7 = PRODUCT_DEFINITION ( 'UNKNOWN', '', #254, #170 ) ;
#8 = CARTESIAN_POINT ( 'NONE',  ( 9.000000000000000000, 0.000000000000000000, 25.00000000000000000 ) ) ;
#9 = APPLICATION_CONTEXT ( 'configuration controlled 3d designs of mechanical parts and assemblies' ) ;
#10 = CARTESIAN_POINT ( 'NONE',  ( 16.00000000000000000, 0.000000000000000000, 25.00000000000000000 ) ) ;
#11 = VECTOR ( 'NONE', #138, 1000.000000000000000 ) ;
#12 = DIRECTION ( 'NONE',  ( 0.000000000000000000, 0.000000000000000000, 1.000000000000000000 ) ) ;
#13 = APPROVAL_STATUS ( 'not_yet_approved' ) ;
#14 =( LENGTH_UNIT ( ) NAMED_UNIT ( * ) SI_UNIT ( .MILLI., .METRE. ) );
#15 = AXIS2_PLACEMENT_3D ( 'NONE', #154, #56, #209 ) ;
#16 = DATE_AND_TIME ( #115, #260 ) ;
#17 = CARTESIAN_POINT ( 'NONE',  ( 0.000000000000000000, 0.000000000000000000, 40.00000000000000000 ) ) ;
#18 = ORIENTED_EDGE ( 'NONE', *, *, #140, .F. ) ;
#19 = PERSON_AND_ORGANIZATION ( #162, #326 ) ;
#20 = CARTESIAN_POINT ( 'NONE',  ( -16.00000000000000000, 1.959434878635765131E-15, 0.000000000000000000 ) ) ;
#21 = ADVANCED_FACE ( 'NONE', ( #135 ), #155, .F. ) ;
#22 = APPROVAL_STATUS ( 'not_yet_approved' ) ;
#23 = LINE ( 'NONE', #133, #158 ) ;
#24 = APPROVAL_DATE_TIME ( #263, #318 ) ;
#25 = DIRECTION ( 'NONE',  ( 1.000000000000000000, 0.000000000000000000, 0.000000000000000000 ) ) ;
#26 = AXIS2_PLACEMENT_3D ( 'NONE', #157, #54, #156 ) ;
#27 = AXIS2_PLACEMENT_3D ( 'NONE', #17, #178, #42 ) ;
#28 = CC_DESIGN_SECURITY_CLASSIFICATION ( #215, ( #254 ) ) ;
#29 = EDGE_CURVE ( 'NONE', #223, #151, #105, .T. ) ;
#30 = CARTESIAN_POINT ( 'NONE',  ( 9.000000000000000000, 0.000000000000000000, 9.000000000000000000 ) ) ;
#31 = ORIENTED_EDGE ( 'NONE', *, *, #147, .T. ) ;
#32 = CARTESIAN_POINT ( 'NONE',  ( 0.000000000000000000, 0.000000000000000000, 40.00000000000000000 ) ) ;
#33 = AXIS2_PLACEMENT_3D ( 'NONE', #107, #85, #205 ) ;
#34 = DIRECTION ( 'NONE',  ( 1.000000000000000000, 0.000000000000000000, 0.000000000000000000 ) ) ;
#35 = ORIENTED_EDGE ( 'NONE', *, *, #323, .F. ) ;
#36 = UNCERTAINTY_MEASURE_WITH_UNIT (LENGTH_MEASURE( 1.000000000000000082E-05 ), #14, 'distance_accuracy_value', 'NONE');
#37 = EDGE_LOOP ( 'NONE', ( #193, #113, #31, #310 ) ) ;
#38 = FACE_OUTER_BOUND ( 'NONE', #219, .T. ) ;
#39 = ORIENTED_EDGE ( 'NONE', *, *, #29, .T. ) ;
#40 = CIRCLE ( 'NONE', #259, 5.500000000000000000 ) ;
#41 = PRODUCT_DEFINITION_SHAPE ( 'NONE', 'NONE',  #7 ) ;
#42 = DIRECTION ( 'NONE',  ( 1.000000000000000000, 0.000000000000000000, 0.000000000000000000 ) ) ;
#43 = LOCAL_TIME ( 8, 51, 3.000000000000000000, #289 ) ;
#44 = ORIENTED_EDGE ( 'NONE', *, *, #305, .T. ) ;
#45 = ADVANCED_FACE ( 'NONE', ( #286, #237 ), #51, .F. ) ;
#46 = DIRECTION ( 'NONE',  ( 1.000000000000000000, 0.000000000000000000, 0.000000000000000000 ) ) ;
#47 = PERSON_AND_ORGANIZATION ( #162, #326 ) ;
#48 = VECTOR ( 'NONE', #67, 1000.000000000000000 ) ;
#49 = ORIENTED_EDGE ( 'NONE', *, *, #147, .F. ) ;
#50 = PERSON_AND_ORGANIZATION_ROLE ( 'classification_officer' ) ;
#51 = PLANE ( 'NONE',  #185 ) ;
#52 = DIRECTION ( 'NONE',  ( 1.000000000000000000, 0.000000000000000000, 0.000000000000000000 ) ) ;
#53 = DATE_AND_TIME ( #327, #97 ) ;
#54 = DIRECTION ( 'NONE',  ( 0.000000000000000000, 0.000000000000000000, 1.000000000000000000 ) ) ;
#55 = COORDINATED_UNIVERSAL_TIME_OFFSET ( 9, 0, .AHEAD. ) ;
#56 = DIRECTION ( 'NONE',  ( 0.000000000000000000, 0.000000000000000000, 1.000000000000000000 ) ) ;
#57 = CC_DESIGN_PERSON_AND_ORGANIZATION_ASSIGNMENT ( #47, #180, ( #119 ) ) ;
#58 = APPROVAL_DATE_TIME ( #84, #294 ) ;
#59 = LINE ( 'NONE', #159, #11 ) ;
#60 = CARTESIAN_POINT ( 'NONE',  ( -9.000000000000000000, 1.102182119232617714E-15, 9.000000000000000000 ) ) ;
#61 = CC_DESIGN_DATE_AND_TIME_ASSIGNMENT ( #16, #186, ( #215 ) ) ;
#62 = CYLINDRICAL_SURFACE ( 'NONE', #242, 5.500000000000000000 ) ;
#63 = ORIENTED_EDGE ( 'NONE', *, *, #202, .T. ) ;
#64 = CIRCLE ( 'NONE', #26, 5.500000000000000000 ) ;
#65 = LINE ( 'NONE', #109, #48 ) ;
#66 = PERSON_AND_ORGANIZATION ( #162, #326 ) ;
#67 = DIRECTION ( 'NONE',  ( 0.000000000000000000, 0.000000000000000000, 1.000000000000000000 ) ) ;
#68 = EDGE_LOOP ( 'NONE', ( #5, #314, #95, #270 ) ) ;
#69 = VERTEX_POINT ( 'NONE', #20 ) ;
#70 = DIRECTION ( 'NONE',  ( 1.000000000000000000, 0.000000000000000000, 0.000000000000000000 ) ) ;
#71 =( GEOMETRIC_REPRESENTATION_CONTEXT ( 3 ) GLOBAL_UNCERTAINTY_ASSIGNED_CONTEXT ( ( #36 ) ) GLOBAL_UNIT_ASSIGNED_CONTEXT ( ( #14, #198, #175 ) ) REPRESENTATION_CONTEXT ( 'NONE', 'WORKASPACE' ) );
#72 = VERTEX_POINT ( 'NONE', #30 ) ;
#73 = CARTESIAN_POINT ( 'NONE',  ( -16.00000000000000000, 1.959434878635765131E-15, 25.00000000000000000 ) ) ;
#74 = ORIENTED_EDGE ( 'NONE', *, *, #235, .F. ) ;
#75 = DIRECTION ( 'NONE',  ( 0.000000000000000000, 0.000000000000000000, 1.000000000000000000 ) ) ;
#76 = APPLICATION_PROTOCOL_DEFINITION ( 'international standard', 'config_control_design', 1994, #9 ) ;
#77 = ADVANCED_FACE ( 'NONE', ( #189, #104 ), #281, .F. ) ;
#78 = DIRECTION ( 'NONE',  ( 1.000000000000000000, 0.000000000000000000, 0.000000000000000000 ) ) ;
#79 = VECTOR ( 'NONE', #287, 1000.000000000000000 ) ;
#80 = CARTESIAN_POINT ( 'NONE',  ( 0.000000000000000000, 0.000000000000000000, 40.00000000000000000 ) ) ;
#81 = CIRCLE ( 'NONE', #203, 9.000000000000000000 ) ;
#82 = APPROVAL_PERSON_ORGANIZATION ( #66, #285, #166 ) ;
#83 = DIRECTION ( 'NONE',  ( -1.000000000000000000, 0.000000000000000000, 0.000000000000000000 ) ) ;
#84 = DATE_AND_TIME ( #302, #150 ) ;
#85 = DIRECTION ( 'NONE',  ( 0.000000000000000000, 0.000000000000000000, -1.000000000000000000 ) ) ;
#86 = DIRECTION ( 'NONE',  ( 0.000000000000000000, 0.000000000000000000, 1.000000000000000000 ) ) ;
#87 = VECTOR ( 'NONE', #325, 1000.000000000000000 ) ;
#88 = CARTESIAN_POINT ( 'NONE',  ( 0.000000000000000000, 0.000000000000000000, 25.00000000000000000 ) ) ;
#89 = DIRECTION ( 'NONE',  ( 0.000000000000000000, 0.000000000000000000, 1.000000000000000000 ) ) ;
#90 = EDGE_LOOP ( 'NONE', ( #271, #49 ) ) ;
#91 = DIRECTION ( 'NONE',  ( 1.000000000000000000, 0.000000000000000000, 0.000000000000000000 ) ) ;
#92 = ADVANCED_FACE ( 'NONE', ( #131, #206 ), #284, .F. ) ;
#93 = AXIS2_PLACEMENT_3D ( 'NONE', #255, #293, #312 ) ;
#94 = ORIENTED_EDGE ( 'NONE', *, *, #305, .F. ) ;
#95 = ORIENTED_EDGE ( 'NONE', *, *, #145, .T. ) ;
#96 = AXIS2_PLACEMENT_3D ( 'NONE', #80, #103, #25 ) ;
#97 = LOCAL_TIME ( 8, 51, 3.000000000000000000, #233 ) ;
#98 = MECHANICAL_CONTEXT ( 'NONE', #226, 'mechanical' ) ;
#99 = EDGE_LOOP ( 'NONE', ( #268, #256, #320, #224 ) ) ;
#100 = APPROVAL_ROLE ( '' ) ;
#101 = ORIENTED_EDGE ( 'NONE', *, *, #210, .T. ) ;
#102 = PERSON_AND_ORGANIZATION ( #162, #326 ) ;
#103 = DIRECTION ( 'NONE',  ( 0.000000000000000000, 0.000000000000000000, 1.000000000000000000 ) ) ;
#104 = FACE_OUTER_BOUND ( 'NONE', #146, .T. ) ;
#105 = LINE ( 'NONE', #324, #87 ) ;
#106 = DATE_TIME_ROLE ( 'creation_date' ) ;
#107 = CARTESIAN_POINT ( 'NONE',  ( 16.00000000000000000, 0.000000000000000000, 25.00000000000000000 ) ) ;
#108 = CARTESIAN_POINT ( 'NONE',  ( 5.500000000000000000, 0.000000000000000000, 0.000000000000000000 ) ) ;
#109 = CARTESIAN_POINT ( 'NONE',  ( 5.500000000000000000, 0.000000000000000000, 40.00000000000000000 ) ) ;
#110 = CIRCLE ( 'NONE', #142, 5.500000000000000000 ) ;
#111 = ORIENTED_EDGE ( 'NONE', *, *, #134, .T. ) ;
#112 = DIRECTION ( 'NONE',  ( 1.000000000000000000, 0.000000000000000000, 0.000000000000000000 ) ) ;
#113 = ORIENTED_EDGE ( 'NONE', *, *, #140, .T. ) ;
#114 = MANIFOLD_SOLID_BREP ( 'Imported1', #173 ) ;
#115 = CALENDAR_DATE ( 2021, 25, 10 ) ;
#116 = DIRECTION ( 'NONE',  ( 0.000000000000000000, 0.000000000000000000, 1.000000000000000000 ) ) ;
#117 = ADVANCED_FACE ( 'NONE', ( #298 ), #261, .T. ) ;
#118 = CALENDAR_DATE ( 2021, 25, 10 ) ;
#119 = PRODUCT ( 'bj300-10025', 'bj300-10025', '', ( #98 ) ) ;
#120 = CYLINDRICAL_SURFACE ( 'NONE', #149, 9.000000000000000000 ) ;
#121 = ORIENTED_EDGE ( 'NONE', *, *, #2, .T. ) ;
#122 = EDGE_LOOP ( 'NONE', ( #44, #121 ) ) ;
#123 = CC_DESIGN_PERSON_AND_ORGANIZATION_ASSIGNMENT ( #279, #50, ( #215 ) ) ;
#124 = DIRECTION ( 'NONE',  ( 0.000000000000000000, 0.000000000000000000, 1.000000000000000000 ) ) ;
#125 = ORIENTED_EDGE ( 'NONE', *, *, #134, .F. ) ;
#126 = AXIS2_PLACEMENT_3D ( 'NONE', #4, #192, #213 ) ;
#127 = DIRECTION ( 'NONE',  ( 0.000000000000000000, 0.000000000000000000, 1.000000000000000000 ) ) ;
#128 = ORIENTED_EDGE ( 'NONE', *, *, #177, .T. ) ;
#129 = DIRECTION ( 'NONE',  ( 0.000000000000000000, 0.000000000000000000, 1.000000000000000000 ) ) ;
#130 = EDGE_CURVE ( 'NONE', #317, #239, #64, .T. ) ;
#131 = FACE_BOUND ( 'NONE', #153, .T. ) ;
#132 = PERSON_AND_ORGANIZATION ( #162, #326 ) ;
#133 = CARTESIAN_POINT ( 'NONE',  ( 9.000000000000000000, 0.000000000000000000, 40.00000000000000000 ) ) ;
#134 = EDGE_CURVE ( 'NONE', #72, #217, #23, .T. ) ;
#135 = FACE_OUTER_BOUND ( 'NONE', #277, .T. ) ;
#136 = PERSON_AND_ORGANIZATION_ROLE ( 'creator' ) ;
#137 = AXIS2_PLACEMENT_3D ( 'NONE', #218, #129, #70 ) ;
#138 = DIRECTION ( 'NONE',  ( 0.000000000000000000, 0.000000000000000000, 1.000000000000000000 ) ) ;
#139 = FACE_OUTER_BOUND ( 'NONE', #174, .T. ) ;
#140 = EDGE_CURVE ( 'NONE', #252, #239, #264, .T. ) ;
#141 = CARTESIAN_POINT ( 'NONE',  ( -5.500000000000000000, 6.735557395310442023E-16, 0.000000000000000000 ) ) ;
#142 = AXIS2_PLACEMENT_3D ( 'NONE', #322, #187, #78 ) ;
#143 = FACE_OUTER_BOUND ( 'NONE', #37, .T. ) ;
#144 = ORIENTED_EDGE ( 'NONE', *, *, #309, .F. ) ;
#145 = EDGE_CURVE ( 'NONE', #165, #194, #59, .T. ) ;
#146 = EDGE_LOOP ( 'NONE', ( #101, #315 ) ) ;
#147 = EDGE_CURVE ( 'NONE', #239, #317, #40, .T. ) ;
#148 = VERTEX_POINT ( 'NONE', #108 ) ;
#149 = AXIS2_PLACEMENT_3D ( 'NONE', #32, #86, #91 ) ;
#150 = LOCAL_TIME ( 8, 51, 3.000000000000000000, #208 ) ;
#151 = VERTEX_POINT ( 'NONE', #211 ) ;
#152 = ORIENTED_EDGE ( 'NONE', *, *, #201, .F. ) ;
#153 = EDGE_LOOP ( 'NONE', ( #74, #152 ) ) ;
#154 = CARTESIAN_POINT ( 'NONE',  ( 0.000000000000000000, 0.000000000000000000, 40.00000000000000000 ) ) ;
#155 = CYLINDRICAL_SURFACE ( 'NONE', #96, 9.000000000000000000 ) ;
#156 = DIRECTION ( 'NONE',  ( 1.000000000000000000, 0.000000000000000000, 0.000000000000000000 ) ) ;
#157 = CARTESIAN_POINT ( 'NONE',  ( 0.000000000000000000, 0.000000000000000000, 9.000000000000000000 ) ) ;
#158 = VECTOR ( 'NONE', #231, 1000.000000000000000 ) ;
#159 = CARTESIAN_POINT ( 'NONE',  ( 16.00000000000000000, 0.000000000000000000, 40.00000000000000000 ) ) ;
#160 = CIRCLE ( 'NONE', #220, 16.00000000000000000 ) ;
#161 = DIRECTION ( 'NONE',  ( 0.000000000000000000, 0.000000000000000000, 1.000000000000000000 ) ) ;
#162 = PERSON ( 'UNSPECIFIED', 'UNSPECIFIED', 'UNSPECIFIED', ('UNSPECIFIED'), ('UNSPECIFIED'), ('UNSPECIFIED') ) ;
#163 = EDGE_CURVE ( 'NONE', #194, #307, #160, .T. ) ;
#164 = CARTESIAN_POINT ( 'NONE',  ( 0.000000000000000000, 0.000000000000000000, 9.000000000000000000 ) ) ;
#165 = VERTEX_POINT ( 'NONE', #244 ) ;
#166 = APPROVAL_ROLE ( '' ) ;
#167 = PRODUCT_RELATED_PRODUCT_CATEGORY ( 'detail', '', ( #119 ) ) ;
#168 = AXIS2_PLACEMENT_3D ( 'NONE', #296, #276, #46 ) ;
#169 = DIRECTION ( 'NONE',  ( 0.000000000000000000, 0.000000000000000000, 1.000000000000000000 ) ) ;
#170 = DESIGN_CONTEXT ( 'detailed design', #9, 'design' ) ;
#171 = SHAPE_DEFINITION_REPRESENTATION ( #41, #228 ) ;
#172 = CC_DESIGN_PERSON_AND_ORGANIZATION_ASSIGNMENT ( #319, #136, ( #7 ) ) ;
#173 = CLOSED_SHELL ( 'NONE', ( #21, #117, #265, #77, #225, #45, #328, #92, #246 ) ) ;
#174 = EDGE_LOOP ( 'NONE', ( #18, #94, #63, #313 ) ) ;
#175 =( NAMED_UNIT ( * ) SI_UNIT ( $, .STERADIAN. ) SOLID_ANGLE_UNIT ( ) );
#176 = EDGE_LOOP ( 'NONE', ( #144, #212 ) ) ;
#177 = EDGE_CURVE ( 'NONE', #307, #194, #292, .T. ) ;
#178 = DIRECTION ( 'NONE',  ( 0.000000000000000000, 0.000000000000000000, 1.000000000000000000 ) ) ;
#179 = EDGE_LOOP ( 'NONE', ( #250, #128 ) ) ;
#180 = PERSON_AND_ORGANIZATION_ROLE ( 'design_owner' ) ;
#181 = CARTESIAN_POINT ( 'NONE',  ( 0.000000000000000000, 0.000000000000000000, 25.00000000000000000 ) ) ;
#182 = SECURITY_CLASSIFICATION_LEVEL ( 'unclassified' ) ;
#183 = CC_DESIGN_PERSON_AND_ORGANIZATION_ASSIGNMENT ( #132, #297, ( #254 ) ) ;
#184 = CARTESIAN_POINT ( 'NONE',  ( 5.500000000000000000, 0.000000000000000000, 0.000000000000000000 ) ) ;
#185 = AXIS2_PLACEMENT_3D ( 'NONE', #184, #75, #52 ) ;
#186 = DATE_TIME_ROLE ( 'classification_date' ) ;
#187 = DIRECTION ( 'NONE',  ( 0.000000000000000000, 0.000000000000000000, 1.000000000000000000 ) ) ;
#188 = PERSON_AND_ORGANIZATION ( #162, #326 ) ;
#189 = FACE_BOUND ( 'NONE', #90, .T. ) ;
#190 = CC_DESIGN_DATE_AND_TIME_ASSIGNMENT ( #53, #106, ( #7 ) ) ;
#191 = LOCAL_TIME ( 8, 51, 3.000000000000000000, #55 ) ;
#192 = DIRECTION ( 'NONE',  ( 0.000000000000000000, 0.000000000000000000, 1.000000000000000000 ) ) ;
#193 = ORIENTED_EDGE ( 'NONE', *, *, #2, .F. ) ;
#194 = VERTEX_POINT ( 'NONE', #10 ) ;
#195 = AXIS2_PLACEMENT_3D ( 'NONE', #249, #127, #316 ) ;
#196 = CC_DESIGN_APPROVAL ( #294, ( #254 ) ) ;
#197 = DIRECTION ( 'NONE',  ( 1.000000000000000000, 0.000000000000000000, 0.000000000000000000 ) ) ;
#198 =( NAMED_UNIT ( * ) PLANE_ANGLE_UNIT ( ) SI_UNIT ( $, .RADIAN. ) );
#199 = AXIS2_PLACEMENT_3D ( 'NONE', #267, #116, #197 ) ;
#200 = CARTESIAN_POINT ( 'NONE',  ( 5.500000000000000000, 0.000000000000000000, 9.000000000000000000 ) ) ;
#201 = EDGE_CURVE ( 'NONE', #151, #217, #295, .T. ) ;
#202 = EDGE_CURVE ( 'NONE', #148, #317, #65, .T. ) ;
#203 = AXIS2_PLACEMENT_3D ( 'NONE', #164, #169, #272 ) ;
#204 = PERSON_AND_ORGANIZATION_ROLE ( 'creator' ) ;
#205 = DIRECTION ( 'NONE',  ( -1.000000000000000000, 0.000000000000000000, 0.000000000000000000 ) ) ;
#206 = FACE_OUTER_BOUND ( 'NONE', #179, .T. ) ;
#207 = CARTESIAN_POINT ( 'NONE',  ( 9.000000000000000000, 0.000000000000000000, 9.000000000000000000 ) ) ;
#208 = COORDINATED_UNIVERSAL_TIME_OFFSET ( 9, 0, .AHEAD. ) ;
#209 = DIRECTION ( 'NONE',  ( 1.000000000000000000, 0.000000000000000000, 0.000000000000000000 ) ) ;
#210 = EDGE_CURVE ( 'NONE', #72, #223, #81, .T. ) ;
#211 = CARTESIAN_POINT ( 'NONE',  ( -9.000000000000000000, 1.102182119232617714E-15, 25.00000000000000000 ) ) ;
#212 = ORIENTED_EDGE ( 'NONE', *, *, #258, .F. ) ;
#213 = DIRECTION ( 'NONE',  ( 1.000000000000000000, 0.000000000000000000, 0.000000000000000000 ) ) ;
#214 = DIRECTION ( 'NONE',  ( 1.000000000000000000, 0.000000000000000000, 0.000000000000000000 ) ) ;
#215 = SECURITY_CLASSIFICATION ( '', '', #182 ) ;
#216 = APPROVAL_DATE_TIME ( #6, #285 ) ;
#217 = VERTEX_POINT ( 'NONE', #8 ) ;
#218 = CARTESIAN_POINT ( 'NONE',  ( 0.000000000000000000, 0.000000000000000000, 9.000000000000000000 ) ) ;
#219 = EDGE_LOOP ( 'NONE', ( #243, #274, #111, #248 ) ) ;
#220 = AXIS2_PLACEMENT_3D ( 'NONE', #181, #280, #214 ) ;
#221 = APPROVAL_PERSON_ORGANIZATION ( #19, #294, #262 ) ;
#222 = APPLICATION_PROTOCOL_DEFINITION ( 'international standard', 'config_control_design', 1994, #226 ) ;
#223 = VERTEX_POINT ( 'NONE', #60 ) ;
#224 = ORIENTED_EDGE ( 'NONE', *, *, #145, .F. ) ;
#225 = ADVANCED_FACE ( 'NONE', ( #139 ), #288, .F. ) ;
#226 = APPLICATION_CONTEXT ( 'configuration controlled 3d designs of mechanical parts and assemblies' ) ;
#227 = CIRCLE ( 'NONE', #195, 5.500000000000000000 ) ;
#228 = ADVANCED_BREP_SHAPE_REPRESENTATION ( 'bj300-10025', ( #114, #168 ), #71 ) ;
#229 = CC_DESIGN_APPROVAL ( #318, ( #7 ) ) ;
#230 = COORDINATED_UNIVERSAL_TIME_OFFSET ( 9, 0, .AHEAD. ) ;
#231 = DIRECTION ( 'NONE',  ( 0.000000000000000000, 0.000000000000000000, 1.000000000000000000 ) ) ;
#232 = AXIS2_PLACEMENT_3D ( 'NONE', #207, #301, #83 ) ;
#233 = COORDINATED_UNIVERSAL_TIME_OFFSET ( 9, 0, .AHEAD. ) ;
#234 = CIRCLE ( 'NONE', #93, 16.00000000000000000 ) ;
#235 = EDGE_CURVE ( 'NONE', #217, #151, #269, .T. ) ;
#236 = CC_DESIGN_APPROVAL ( #285, ( #215 ) ) ;
#237 = FACE_BOUND ( 'NONE', #122, .T. ) ;
#238 = DIRECTION ( 'NONE',  ( 0.000000000000000000, 0.000000000000000000, 1.000000000000000000 ) ) ;
#239 = VERTEX_POINT ( 'NONE', #245 ) ;
#240 = CC_DESIGN_PERSON_AND_ORGANIZATION_ASSIGNMENT ( #188, #204, ( #254 ) ) ;
#241 = CARTESIAN_POINT ( 'NONE',  ( 0.000000000000000000, 0.000000000000000000, 25.00000000000000000 ) ) ;
#242 = AXIS2_PLACEMENT_3D ( 'NONE', #308, #89, #34 ) ;
#243 = ORIENTED_EDGE ( 'NONE', *, *, #29, .F. ) ;
#244 = CARTESIAN_POINT ( 'NONE',  ( 16.00000000000000000, 0.000000000000000000, 0.000000000000000000 ) ) ;
#245 = CARTESIAN_POINT ( 'NONE',  ( -5.500000000000000000, 6.735557395310442023E-16, 9.000000000000000000 ) ) ;
#246 = ADVANCED_FACE ( 'NONE', ( #38 ), #120, .F. ) ;
#247 = CIRCLE ( 'NONE', #126, 16.00000000000000000 ) ;
#248 = ORIENTED_EDGE ( 'NONE', *, *, #235, .T. ) ;
#249 = CARTESIAN_POINT ( 'NONE',  ( 0.000000000000000000, 0.000000000000000000, 0.000000000000000000 ) ) ;
#250 = ORIENTED_EDGE ( 'NONE', *, *, #163, .T. ) ;
#251 = CYLINDRICAL_SURFACE ( 'NONE', #27, 16.00000000000000000 ) ;
#252 = VERTEX_POINT ( 'NONE', #141 ) ;
#253 = ORIENTED_EDGE ( 'NONE', *, *, #201, .T. ) ;
#254 = PRODUCT_DEFINITION_FORMATION_WITH_SPECIFIED_SOURCE ( 'ANY', '', #119, .NOT_KNOWN. ) ;
#255 = CARTESIAN_POINT ( 'NONE',  ( 0.000000000000000000, 0.000000000000000000, 0.000000000000000000 ) ) ;
#256 = ORIENTED_EDGE ( 'NONE', *, *, #275, .T. ) ;
#257 = CARTESIAN_POINT ( 'NONE',  ( 0.000000000000000000, 0.000000000000000000, 9.000000000000000000 ) ) ;
#258 = EDGE_CURVE ( 'NONE', #69, #165, #247, .T. ) ;
#259 = AXIS2_PLACEMENT_3D ( 'NONE', #257, #238, #329 ) ;
#260 = LOCAL_TIME ( 8, 51, 3.000000000000000000, #230 ) ;
#261 = CYLINDRICAL_SURFACE ( 'NONE', #15, 16.00000000000000000 ) ;
#262 = APPROVAL_ROLE ( '' ) ;
#263 = DATE_AND_TIME ( #283, #191 ) ;
#264 = LINE ( 'NONE', #303, #79 ) ;
#265 = ADVANCED_FACE ( 'NONE', ( #143 ), #62, .F. ) ;
#266 = DIRECTION ( 'NONE',  ( 0.000000000000000000, 0.000000000000000000, 1.000000000000000000 ) ) ;
#267 = CARTESIAN_POINT ( 'NONE',  ( 0.000000000000000000, 0.000000000000000000, 25.00000000000000000 ) ) ;
#268 = ORIENTED_EDGE ( 'NONE', *, *, #309, .T. ) ;
#269 = CIRCLE ( 'NONE', #199, 9.000000000000000000 ) ;
#270 = ORIENTED_EDGE ( 'NONE', *, *, #177, .F. ) ;
#271 = ORIENTED_EDGE ( 'NONE', *, *, #130, .F. ) ;
#272 = DIRECTION ( 'NONE',  ( 1.000000000000000000, 0.000000000000000000, 0.000000000000000000 ) ) ;
#273 = FACE_OUTER_BOUND ( 'NONE', #68, .T. ) ;
#274 = ORIENTED_EDGE ( 'NONE', *, *, #210, .F. ) ;
#275 = EDGE_CURVE ( 'NONE', #69, #307, #290, .T. ) ;
#276 = DIRECTION ( 'NONE',  ( 0.000000000000000000, 0.000000000000000000, 1.000000000000000000 ) ) ;
#277 = EDGE_LOOP ( 'NONE', ( #35, #39, #253, #125 ) ) ;
#278 = CIRCLE ( 'NONE', #137, 9.000000000000000000 ) ;
#279 = PERSON_AND_ORGANIZATION ( #162, #326 ) ;
#280 = DIRECTION ( 'NONE',  ( 0.000000000000000000, 0.000000000000000000, 1.000000000000000000 ) ) ;
#281 = PLANE ( 'NONE',  #232 ) ;
#282 = AXIS2_PLACEMENT_3D ( 'NONE', #241, #266, #112 ) ;
#283 = CALENDAR_DATE ( 2021, 25, 10 ) ;
#284 = PLANE ( 'NONE',  #33 ) ;
#285 = APPROVAL ( #13, 'UNSPECIFIED' ) ;
#286 = FACE_OUTER_BOUND ( 'NONE', #176, .T. ) ;
#287 = DIRECTION ( 'NONE',  ( 0.000000000000000000, 0.000000000000000000, 1.000000000000000000 ) ) ;
#288 = CYLINDRICAL_SURFACE ( 'NONE', #3, 5.500000000000000000 ) ;
#289 = COORDINATED_UNIVERSAL_TIME_OFFSET ( 9, 0, .AHEAD. ) ;
#290 = LINE ( 'NONE', #311, #321 ) ;
#291 = CARTESIAN_POINT ( 'NONE',  ( 0.000000000000000000, 0.000000000000000000, 40.00000000000000000 ) ) ;
#292 = CIRCLE ( 'NONE', #306, 16.00000000000000000 ) ;
#293 = DIRECTION ( 'NONE',  ( 0.000000000000000000, 0.000000000000000000, 1.000000000000000000 ) ) ;
#294 = APPROVAL ( #22, 'UNSPECIFIED' ) ;
#295 = CIRCLE ( 'NONE', #282, 9.000000000000000000 ) ;
#296 = CARTESIAN_POINT ( 'NONE',  ( 0.000000000000000000, 0.000000000000000000, 0.000000000000000000 ) ) ;
#297 = PERSON_AND_ORGANIZATION_ROLE ( 'design_supplier' ) ;
#298 = FACE_OUTER_BOUND ( 'NONE', #99, .T. ) ;
#299 = APPROVAL_STATUS ( 'not_yet_approved' ) ;
#300 = APPROVAL_PERSON_ORGANIZATION ( #102, #318, #100 ) ;
#301 = DIRECTION ( 'NONE',  ( 0.000000000000000000, 0.000000000000000000, -1.000000000000000000 ) ) ;
#302 = CALENDAR_DATE ( 2021, 25, 10 ) ;
#303 = CARTESIAN_POINT ( 'NONE',  ( -5.500000000000000000, 6.735557395310442023E-16, 40.00000000000000000 ) ) ;
#304 = DIRECTION ( 'NONE',  ( 1.000000000000000000, 0.000000000000000000, 0.000000000000000000 ) ) ;
#305 = EDGE_CURVE ( 'NONE', #148, #252, #227, .T. ) ;
#306 = AXIS2_PLACEMENT_3D ( 'NONE', #88, #12, #304 ) ;
#307 = VERTEX_POINT ( 'NONE', #73 ) ;
#308 = CARTESIAN_POINT ( 'NONE',  ( 0.000000000000000000, 0.000000000000000000, 40.00000000000000000 ) ) ;
#309 = EDGE_CURVE ( 'NONE', #165, #69, #234, .T. ) ;
#310 = ORIENTED_EDGE ( 'NONE', *, *, #202, .F. ) ;
#311 = CARTESIAN_POINT ( 'NONE',  ( -16.00000000000000000, 1.959434878635765131E-15, 40.00000000000000000 ) ) ;
#312 = DIRECTION ( 'NONE',  ( 1.000000000000000000, 0.000000000000000000, 0.000000000000000000 ) ) ;
#313 = ORIENTED_EDGE ( 'NONE', *, *, #130, .T. ) ;
#314 = ORIENTED_EDGE ( 'NONE', *, *, #258, .T. ) ;
#315 = ORIENTED_EDGE ( 'NONE', *, *, #323, .T. ) ;
#316 = DIRECTION ( 'NONE',  ( 1.000000000000000000, 0.000000000000000000, 0.000000000000000000 ) ) ;
#317 = VERTEX_POINT ( 'NONE', #200 ) ;
#318 = APPROVAL ( #299, 'UNSPECIFIED' ) ;
#319 = PERSON_AND_ORGANIZATION ( #162, #326 ) ;
#320 = ORIENTED_EDGE ( 'NONE', *, *, #163, .F. ) ;
#321 = VECTOR ( 'NONE', #124, 1000.000000000000000 ) ;
#322 = CARTESIAN_POINT ( 'NONE',  ( 0.000000000000000000, 0.000000000000000000, 0.000000000000000000 ) ) ;
#323 = EDGE_CURVE ( 'NONE', #223, #72, #278, .T. ) ;
#324 = CARTESIAN_POINT ( 'NONE',  ( -9.000000000000000000, 1.102182119232617714E-15, 40.00000000000000000 ) ) ;
#325 = DIRECTION ( 'NONE',  ( 0.000000000000000000, 0.000000000000000000, 1.000000000000000000 ) ) ;
#326 = ORGANIZATION ( 'UNSPECIFIED', 'UNSPECIFIED', '' ) ;
#327 = CALENDAR_DATE ( 2021, 25, 10 ) ;
#328 = ADVANCED_FACE ( 'NONE', ( #273 ), #251, .T. ) ;
#329 = DIRECTION ( 'NONE',  ( 1.000000000000000000, 0.000000000000000000, 0.000000000000000000 ) ) ;
ENDSEC;
END-ISO-10303-21;
