ISO-10303-21;
HEADER;
FILE_DESCRIPTION (( 'STEP AP203' ),
    '1' );
FILE_NAME ('bj623-10002.STEP',
    '2021-10-24T23:57:28',
    ( '' ),
    ( '' ),
    'SwSTEP 2.0',
    'SolidWorks 2020',
    '' );
FILE_SCHEMA (( 'CONFIG_CONTROL_DESIGN' ));
ENDSEC;

DATA;
#1 = UNCERTAINTY_MEASURE_WITH_UNIT (LENGTH_MEASURE( 1.000000000000000082E-05 ), #63, 'distance_accuracy_value', 'NONE');
#2 = DATE_AND_TIME ( #195, #211 ) ;
#3 = DIRECTION ( 'NONE',  ( -1.000000000000000000, 0.000000000000000000, 0.000000000000000000 ) ) ;
#4 = CC_DESIGN_DATE_AND_TIME_ASSIGNMENT ( #64, #146, ( #65 ) ) ;
#5 = CALENDAR_DATE ( 2021, 25, 10 ) ;
#6 = PERSON_AND_ORGANIZATION_ROLE ( 'creator' ) ;
#7 = COORDINATED_UNIVERSAL_TIME_OFFSET ( 9, 0, .AHEAD. ) ;
#8 = DIRECTION ( 'NONE',  ( 0.000000000000000000, 0.000000000000000000, 1.000000000000000000 ) ) ;
#9 = PERSON_AND_ORGANIZATION ( #247, #137 ) ;
#10 = CC_DESIGN_PERSON_AND_ORGANIZATION_ASSIGNMENT ( #196, #212, ( #97 ) ) ;
#11 = DIRECTION ( 'NONE',  ( 1.000000000000000000, 0.000000000000000000, 0.000000000000000000 ) ) ;
#12 = AXIS2_PLACEMENT_3D ( 'NONE', #91, #23, #111 ) ;
#13 = EDGE_CURVE ( 'NONE', #15, #76, #113, .T. ) ;
#14 = LINE ( 'NONE', #151, #186 ) ;
#15 = VERTEX_POINT ( 'NONE', #54 ) ;
#16 = DIRECTION ( 'NONE',  ( 0.000000000000000000, 0.000000000000000000, -1.000000000000000000 ) ) ;
#17 = DIRECTION ( 'NONE',  ( 1.000000000000000000, 0.000000000000000000, 0.000000000000000000 ) ) ;
#18 = ORIENTED_EDGE ( 'NONE', *, *, #229, .T. ) ;
#19 = CALENDAR_DATE ( 2021, 25, 10 ) ;
#20 = LINE ( 'NONE', #106, #169 ) ;
#21 = EDGE_CURVE ( 'NONE', #15, #177, #213, .T. ) ;
#22 = PERSON_AND_ORGANIZATION ( #247, #137 ) ;
#23 = DIRECTION ( 'NONE',  ( 0.000000000000000000, 0.000000000000000000, 1.000000000000000000 ) ) ;
#24 = ADVANCED_FACE ( 'NONE', ( #60, #121 ), #105, .F. ) ;
#25 = CIRCLE ( 'NONE', #47, 20.00000000000000000 ) ;
#26 = VERTEX_POINT ( 'NONE', #217 ) ;
#27 = CARTESIAN_POINT ( 'NONE',  ( 0.000000000000000000, 0.000000000000000000, 5.000000000000000000 ) ) ;
#28 = CALENDAR_DATE ( 2021, 25, 10 ) ;
#29 = PRODUCT_RELATED_PRODUCT_CATEGORY ( 'detail', '', ( #97 ) ) ;
#30 = PLANE ( 'NONE',  #12 ) ;
#31 = LOCAL_TIME ( 8, 57, 28.00000000000000000, #197 ) ;
#32 = ORIENTED_EDGE ( 'NONE', *, *, #67, .F. ) ;
#33 = MECHANICAL_CONTEXT ( 'NONE', #45, 'mechanical' ) ;
#34 = CC_DESIGN_DATE_AND_TIME_ASSIGNMENT ( #123, #66, ( #216 ) ) ;
#35 = ORIENTED_EDGE ( 'NONE', *, *, #249, .T. ) ;
#36 = DIRECTION ( 'NONE',  ( -1.000000000000000000, 0.000000000000000000, 0.000000000000000000 ) ) ;
#37 = ORIENTED_EDGE ( 'NONE', *, *, #13, .T. ) ;
#38 = EDGE_CURVE ( 'NONE', #77, #68, #20, .T. ) ;
#39 = EDGE_CURVE ( 'NONE', #177, #26, #25, .T. ) ;
#40 = FACE_OUTER_BOUND ( 'NONE', #132, .T. ) ;
#41 = EDGE_LOOP ( 'NONE', ( #56, #72, #226, #191 ) ) ;
#42 = CARTESIAN_POINT ( 'NONE',  ( 0.000000000000000000, 0.000000000000000000, 5.000000000000000000 ) ) ;
#43 = AXIS2_PLACEMENT_3D ( 'NONE', #85, #8, #88 ) ;
#44 = ADVANCED_FACE ( 'NONE', ( #170, #187 ), #30, .T. ) ;
#45 = APPLICATION_CONTEXT ( 'configuration controlled 3d designs of mechanical parts and assemblies' ) ;
#46 = CARTESIAN_POINT ( 'NONE',  ( 0.000000000000000000, 0.000000000000000000, 5.000000000000000000 ) ) ;
#47 = AXIS2_PLACEMENT_3D ( 'NONE', #168, #95, #193 ) ;
#48 = ORIENTED_EDGE ( 'NONE', *, *, #194, .T. ) ;
#49 =( NAMED_UNIT ( * ) SI_UNIT ( $, .STERADIAN. ) SOLID_ANGLE_UNIT ( ) );
#50 = ORIENTED_EDGE ( 'NONE', *, *, #78, .T. ) ;
#51 = DIRECTION ( 'NONE',  ( 1.000000000000000000, 0.000000000000000000, 0.000000000000000000 ) ) ;
#52 = CARTESIAN_POINT ( 'NONE',  ( 20.00000000000000000, 2.449293598294706513E-15, 0.000000000000000000 ) ) ;
#53 = LINE ( 'NONE', #57, #214 ) ;
#54 = CARTESIAN_POINT ( 'NONE',  ( 20.00000000000000000, 2.449293598294706513E-15, 5.000000000000000000 ) ) ;
#55 = DESIGN_CONTEXT ( 'detailed design', #150, 'design' ) ;
#56 = ORIENTED_EDGE ( 'NONE', *, *, #13, .F. ) ;
#57 = CARTESIAN_POINT ( 'NONE',  ( -20.00000000000000000, 0.000000000000000000, 5.000000000000000000 ) ) ;
#58 = CARTESIAN_POINT ( 'NONE',  ( 0.000000000000000000, 0.000000000000000000, 5.000000000000000000 ) ) ;
#59 = CIRCLE ( 'NONE', #43, 5.250000000000000000 ) ;
#60 = FACE_OUTER_BOUND ( 'NONE', #244, .T. ) ;
#61 = VERTEX_POINT ( 'NONE', #173 ) ;
#62 = DIRECTION ( 'NONE',  ( 1.000000000000000000, 0.000000000000000000, 0.000000000000000000 ) ) ;
#63 =( LENGTH_UNIT ( ) NAMED_UNIT ( * ) SI_UNIT ( .MILLI., .METRE. ) );
#64 = DATE_AND_TIME ( #5, #80 ) ;
#65 = SECURITY_CLASSIFICATION ( '', '', #219 ) ;
#66 = DATE_TIME_ROLE ( 'creation_date' ) ;
#67 = EDGE_CURVE ( 'NONE', #26, #177, #159, .T. ) ;
#68 = VERTEX_POINT ( 'NONE', #107 ) ;
#69 = CARTESIAN_POINT ( 'NONE',  ( 0.000000000000000000, 0.000000000000000000, 0.000000000000000000 ) ) ;
#70 = AXIS2_PLACEMENT_3D ( 'NONE', #112, #16, #36 ) ;
#71 = AXIS2_PLACEMENT_3D ( 'NONE', #46, #237, #207 ) ;
#72 = ORIENTED_EDGE ( 'NONE', *, *, #21, .T. ) ;
#73 = EDGE_CURVE ( 'NONE', #61, #162, #14, .T. ) ;
#74 = DIRECTION ( 'NONE',  ( 1.000000000000000000, 0.000000000000000000, 0.000000000000000000 ) ) ;
#75 = SHAPE_DEFINITION_REPRESENTATION ( #90, #99 ) ;
#76 = VERTEX_POINT ( 'NONE', #184 ) ;
#77 = VERTEX_POINT ( 'NONE', #190 ) ;
#78 = EDGE_CURVE ( 'NONE', #61, #77, #119, .T. ) ;
#79 = AXIS2_PLACEMENT_3D ( 'NONE', #27, #188, #148 ) ;
#80 = LOCAL_TIME ( 8, 57, 28.00000000000000000, #182 ) ;
#81 = EDGE_LOOP ( 'NONE', ( #18, #101 ) ) ;
#82 = CC_DESIGN_PERSON_AND_ORGANIZATION_ASSIGNMENT ( #158, #145, ( #216 ) ) ;
#83 = PRODUCT_DEFINITION_FORMATION_WITH_SPECIFIED_SOURCE ( 'ANY', '', #97, .NOT_KNOWN. ) ;
#84 = DIRECTION ( 'NONE',  ( 0.000000000000000000, 0.000000000000000000, 1.000000000000000000 ) ) ;
#85 = CARTESIAN_POINT ( 'NONE',  ( 0.000000000000000000, 0.000000000000000000, 5.000000000000000000 ) ) ;
#86 = PERSON_AND_ORGANIZATION ( #247, #137 ) ;
#87 = ADVANCED_FACE ( 'NONE', ( #40 ), #233, .T. ) ;
#88 = DIRECTION ( 'NONE',  ( 1.000000000000000000, 0.000000000000000000, 0.000000000000000000 ) ) ;
#89 = COORDINATED_UNIVERSAL_TIME_OFFSET ( 9, 0, .AHEAD. ) ;
#90 = PRODUCT_DEFINITION_SHAPE ( 'NONE', 'NONE',  #216 ) ;
#91 = CARTESIAN_POINT ( 'NONE',  ( 0.000000000000000000, 0.000000000000000000, 5.000000000000000000 ) ) ;
#92 = DATE_AND_TIME ( #28, #238 ) ;
#93 = CARTESIAN_POINT ( 'NONE',  ( 0.000000000000000000, 0.000000000000000000, 5.000000000000000000 ) ) ;
#94 = APPROVAL_DATE_TIME ( #2, #131 ) ;
#95 = DIRECTION ( 'NONE',  ( 0.000000000000000000, 0.000000000000000000, 1.000000000000000000 ) ) ;
#96 = APPROVAL_STATUS ( 'not_yet_approved' ) ;
#97 = PRODUCT ( 'bj623-10002', 'bj623-10002', '', ( #33 ) ) ;
#98 = ORIENTED_EDGE ( 'NONE', *, *, #73, .F. ) ;
#99 = ADVANCED_BREP_SHAPE_REPRESENTATION ( 'bj623-10002', ( #189, #164 ), #141 ) ;
#100 = CARTESIAN_POINT ( 'NONE',  ( 0.000000000000000000, 0.000000000000000000, 0.000000000000000000 ) ) ;
#101 = ORIENTED_EDGE ( 'NONE', *, *, #136, .T. ) ;
#102 = APPROVAL_STATUS ( 'not_yet_approved' ) ;
#103 = CALENDAR_DATE ( 2021, 25, 10 ) ;
#104 = DIRECTION ( 'NONE',  ( 0.000000000000000000, 0.000000000000000000, -1.000000000000000000 ) ) ;
#105 = PLANE ( 'NONE',  #128 ) ;
#106 = CARTESIAN_POINT ( 'NONE',  ( 5.250000000000000000, 6.429395695523604153E-16, 5.000000000000000000 ) ) ;
#107 = CARTESIAN_POINT ( 'NONE',  ( 5.250000000000000000, 6.429395695523604153E-16, 0.000000000000000000 ) ) ;
#108 = AXIS2_PLACEMENT_3D ( 'NONE', #152, #222, #11 ) ;
#109 = APPROVAL_PERSON_ORGANIZATION ( #117, #131, #245 ) ;
#110 = ORIENTED_EDGE ( 'NONE', *, *, #136, .F. ) ;
#111 = DIRECTION ( 'NONE',  ( 1.000000000000000000, 0.000000000000000000, 0.000000000000000000 ) ) ;
#112 = CARTESIAN_POINT ( 'NONE',  ( 0.000000000000000000, 0.000000000000000000, 5.000000000000000000 ) ) ;
#113 = CIRCLE ( 'NONE', #203, 20.00000000000000000 ) ;
#114 = DIRECTION ( 'NONE',  ( 1.000000000000000000, 0.000000000000000000, 0.000000000000000000 ) ) ;
#115 = COORDINATED_UNIVERSAL_TIME_OFFSET ( 9, 0, .AHEAD. ) ;
#116 = ORIENTED_EDGE ( 'NONE', *, *, #229, .F. ) ;
#117 = PERSON_AND_ORGANIZATION ( #247, #137 ) ;
#118 = CARTESIAN_POINT ( 'NONE',  ( 20.00000000000000000, 2.449293598294706513E-15, 5.000000000000000000 ) ) ;
#119 = CIRCLE ( 'NONE', #79, 5.250000000000000000 ) ;
#120 = ADVANCED_FACE ( 'NONE', ( #126 ), #171, .F. ) ;
#121 = FACE_BOUND ( 'NONE', #81, .T. ) ;
#122 = VECTOR ( 'NONE', #124, 1000.000000000000000 ) ;
#123 = DATE_AND_TIME ( #103, #31 ) ;
#124 = DIRECTION ( 'NONE',  ( 0.000000000000000000, 0.000000000000000000, -1.000000000000000000 ) ) ;
#125 = PERSON_AND_ORGANIZATION ( #247, #137 ) ;
#126 = FACE_OUTER_BOUND ( 'NONE', #127, .T. ) ;
#127 = EDGE_LOOP ( 'NONE', ( #175, #48, #165, #110 ) ) ;
#128 = AXIS2_PLACEMENT_3D ( 'NONE', #199, #84, #62 ) ;
#129 = DATE_AND_TIME ( #19, #179 ) ;
#130 = CC_DESIGN_APPROVAL ( #243, ( #83 ) ) ;
#131 = APPROVAL ( #102, 'UNSPECIFIED' ) ;
#132 = EDGE_LOOP ( 'NONE', ( #154, #224, #35, #241 ) ) ;
#133 = FACE_OUTER_BOUND ( 'NONE', #41, .T. ) ;
#134 = APPROVAL_DATE_TIME ( #92, #156 ) ;
#135 = ORIENTED_EDGE ( 'NONE', *, *, #39, .F. ) ;
#136 = EDGE_CURVE ( 'NONE', #68, #162, #215, .T. ) ;
#137 = ORGANIZATION ( 'UNSPECIFIED', 'UNSPECIFIED', '' ) ;
#138 = APPLICATION_PROTOCOL_DEFINITION ( 'international standard', 'config_control_design', 1994, #45 ) ;
#139 = EDGE_CURVE ( 'NONE', #76, #15, #240, .T. ) ;
#140 = CARTESIAN_POINT ( 'NONE',  ( 0.000000000000000000, 0.000000000000000000, 0.000000000000000000 ) ) ;
#141 =( GEOMETRIC_REPRESENTATION_CONTEXT ( 3 ) GLOBAL_UNCERTAINTY_ASSIGNED_CONTEXT ( ( #1 ) ) GLOBAL_UNIT_ASSIGNED_CONTEXT ( ( #63, #232, #49 ) ) REPRESENTATION_CONTEXT ( 'NONE', 'WORKASPACE' ) );
#142 = AXIS2_PLACEMENT_3D ( 'NONE', #93, #223, #17 ) ;
#143 = CC_DESIGN_SECURITY_CLASSIFICATION ( #65, ( #83 ) ) ;
#144 = FACE_OUTER_BOUND ( 'NONE', #149, .T. ) ;
#145 = PERSON_AND_ORGANIZATION_ROLE ( 'creator' ) ;
#146 = DATE_TIME_ROLE ( 'classification_date' ) ;
#147 = APPROVAL_ROLE ( '' ) ;
#148 = DIRECTION ( 'NONE',  ( 1.000000000000000000, 0.000000000000000000, 0.000000000000000000 ) ) ;
#149 = EDGE_LOOP ( 'NONE', ( #50, #163, #116, #98 ) ) ;
#150 = APPLICATION_CONTEXT ( 'configuration controlled 3d designs of mechanical parts and assemblies' ) ;
#151 = CARTESIAN_POINT ( 'NONE',  ( -5.250000000000000000, 0.000000000000000000, 5.000000000000000000 ) ) ;
#152 = CARTESIAN_POINT ( 'NONE',  ( 0.000000000000000000, 0.000000000000000000, 0.000000000000000000 ) ) ;
#153 = DIRECTION ( 'NONE',  ( 0.000000000000000000, 0.000000000000000000, -1.000000000000000000 ) ) ;
#154 = ORIENTED_EDGE ( 'NONE', *, *, #21, .F. ) ;
#155 = CARTESIAN_POINT ( 'NONE',  ( 0.000000000000000000, 0.000000000000000000, 5.000000000000000000 ) ) ;
#156 = APPROVAL ( #96, 'UNSPECIFIED' ) ;
#157 = EDGE_LOOP ( 'NONE', ( #174, #235 ) ) ;
#158 = PERSON_AND_ORGANIZATION ( #247, #137 ) ;
#159 = CIRCLE ( 'NONE', #198, 20.00000000000000000 ) ;
#160 = APPROVAL_PERSON_ORGANIZATION ( #86, #243, #147 ) ;
#161 = CARTESIAN_POINT ( 'NONE',  ( -5.250000000000000000, 0.000000000000000000, 0.000000000000000000 ) ) ;
#162 = VERTEX_POINT ( 'NONE', #161 ) ;
#163 = ORIENTED_EDGE ( 'NONE', *, *, #38, .T. ) ;
#164 = AXIS2_PLACEMENT_3D ( 'NONE', #140, #178, #74 ) ;
#165 = ORIENTED_EDGE ( 'NONE', *, *, #73, .T. ) ;
#166 = CC_DESIGN_APPROVAL ( #131, ( #216 ) ) ;
#167 = APPROVAL_DATE_TIME ( #129, #243 ) ;
#168 = CARTESIAN_POINT ( 'NONE',  ( 0.000000000000000000, 0.000000000000000000, 0.000000000000000000 ) ) ;
#169 = VECTOR ( 'NONE', #183, 1000.000000000000000 ) ;
#170 = FACE_OUTER_BOUND ( 'NONE', #181, .T. ) ;
#171 = CYLINDRICAL_SURFACE ( 'NONE', #71, 5.250000000000000000 ) ;
#172 = ADVANCED_FACE ( 'NONE', ( #144 ), #248, .F. ) ;
#173 = CARTESIAN_POINT ( 'NONE',  ( -5.250000000000000000, 0.000000000000000000, 5.000000000000000000 ) ) ;
#174 = ORIENTED_EDGE ( 'NONE', *, *, #78, .F. ) ;
#175 = ORIENTED_EDGE ( 'NONE', *, *, #38, .F. ) ;
#176 = DIRECTION ( 'NONE',  ( 0.000000000000000000, 0.000000000000000000, 1.000000000000000000 ) ) ;
#177 = VERTEX_POINT ( 'NONE', #52 ) ;
#178 = DIRECTION ( 'NONE',  ( 0.000000000000000000, 0.000000000000000000, 1.000000000000000000 ) ) ;
#179 = LOCAL_TIME ( 8, 57, 28.00000000000000000, #89 ) ;
#180 = APPLICATION_PROTOCOL_DEFINITION ( 'international standard', 'config_control_design', 1994, #150 ) ;
#181 = EDGE_LOOP ( 'NONE', ( #228, #37 ) ) ;
#182 = COORDINATED_UNIVERSAL_TIME_OFFSET ( 9, 0, .AHEAD. ) ;
#183 = DIRECTION ( 'NONE',  ( 0.000000000000000000, 0.000000000000000000, -1.000000000000000000 ) ) ;
#184 = CARTESIAN_POINT ( 'NONE',  ( -20.00000000000000000, 0.000000000000000000, 5.000000000000000000 ) ) ;
#185 = CIRCLE ( 'NONE', #201, 5.250000000000000000 ) ;
#186 = VECTOR ( 'NONE', #221, 1000.000000000000000 ) ;
#187 = FACE_BOUND ( 'NONE', #157, .T. ) ;
#188 = DIRECTION ( 'NONE',  ( 0.000000000000000000, 0.000000000000000000, 1.000000000000000000 ) ) ;
#189 = MANIFOLD_SOLID_BREP ( 'Imported1', #192 ) ;
#190 = CARTESIAN_POINT ( 'NONE',  ( 5.250000000000000000, 6.429395695523604153E-16, 5.000000000000000000 ) ) ;
#191 = ORIENTED_EDGE ( 'NONE', *, *, #249, .F. ) ;
#192 = CLOSED_SHELL ( 'NONE', ( #172, #218, #44, #24, #87, #120 ) ) ;
#193 = DIRECTION ( 'NONE',  ( 1.000000000000000000, 0.000000000000000000, 0.000000000000000000 ) ) ;
#194 = EDGE_CURVE ( 'NONE', #77, #61, #59, .T. ) ;
#195 = CALENDAR_DATE ( 2021, 25, 10 ) ;
#196 = PERSON_AND_ORGANIZATION ( #247, #137 ) ;
#197 = COORDINATED_UNIVERSAL_TIME_OFFSET ( 9, 0, .AHEAD. ) ;
#198 = AXIS2_PLACEMENT_3D ( 'NONE', #69, #234, #114 ) ;
#199 = CARTESIAN_POINT ( 'NONE',  ( 0.000000000000000000, 0.000000000000000000, 0.000000000000000000 ) ) ;
#200 = DIRECTION ( 'NONE',  ( 0.000000000000000000, 0.000000000000000000, -1.000000000000000000 ) ) ;
#201 = AXIS2_PLACEMENT_3D ( 'NONE', #100, #176, #242 ) ;
#202 = CC_DESIGN_PERSON_AND_ORGANIZATION_ASSIGNMENT ( #125, #231, ( #65 ) ) ;
#203 = AXIS2_PLACEMENT_3D ( 'NONE', #155, #227, #51 ) ;
#204 = CC_DESIGN_APPROVAL ( #156, ( #65 ) ) ;
#205 = APPROVAL_STATUS ( 'not_yet_approved' ) ;
#206 = PERSON_AND_ORGANIZATION_ROLE ( 'design_supplier' ) ;
#207 = DIRECTION ( 'NONE',  ( -1.000000000000000000, 0.000000000000000000, 0.000000000000000000 ) ) ;
#208 = CC_DESIGN_PERSON_AND_ORGANIZATION_ASSIGNMENT ( #22, #6, ( #83 ) ) ;
#209 = CYLINDRICAL_SURFACE ( 'NONE', #70, 20.00000000000000000 ) ;
#210 = APPROVAL_ROLE ( '' ) ;
#211 = LOCAL_TIME ( 8, 57, 28.00000000000000000, #115 ) ;
#212 = PERSON_AND_ORGANIZATION_ROLE ( 'design_owner' ) ;
#213 = LINE ( 'NONE', #118, #122 ) ;
#214 = VECTOR ( 'NONE', #200, 1000.000000000000000 ) ;
#215 = CIRCLE ( 'NONE', #108, 5.250000000000000000 ) ;
#216 = PRODUCT_DEFINITION ( 'UNKNOWN', '', #83, #55 ) ;
#217 = CARTESIAN_POINT ( 'NONE',  ( -20.00000000000000000, 0.000000000000000000, 0.000000000000000000 ) ) ;
#218 = ADVANCED_FACE ( 'NONE', ( #133 ), #209, .T. ) ;
#219 = SECURITY_CLASSIFICATION_LEVEL ( 'unclassified' ) ;
#220 = DIRECTION ( 'NONE',  ( -1.000000000000000000, 0.000000000000000000, 0.000000000000000000 ) ) ;
#221 = DIRECTION ( 'NONE',  ( 0.000000000000000000, 0.000000000000000000, -1.000000000000000000 ) ) ;
#222 = DIRECTION ( 'NONE',  ( 0.000000000000000000, 0.000000000000000000, 1.000000000000000000 ) ) ;
#223 = DIRECTION ( 'NONE',  ( 0.000000000000000000, 0.000000000000000000, 1.000000000000000000 ) ) ;
#224 = ORIENTED_EDGE ( 'NONE', *, *, #139, .F. ) ;
#225 = APPROVAL_PERSON_ORGANIZATION ( #239, #156, #210 ) ;
#226 = ORIENTED_EDGE ( 'NONE', *, *, #39, .T. ) ;
#227 = DIRECTION ( 'NONE',  ( 0.000000000000000000, 0.000000000000000000, 1.000000000000000000 ) ) ;
#228 = ORIENTED_EDGE ( 'NONE', *, *, #139, .T. ) ;
#229 = EDGE_CURVE ( 'NONE', #162, #68, #185, .T. ) ;
#230 = AXIS2_PLACEMENT_3D ( 'NONE', #58, #104, #3 ) ;
#231 = PERSON_AND_ORGANIZATION_ROLE ( 'classification_officer' ) ;
#232 =( NAMED_UNIT ( * ) PLANE_ANGLE_UNIT ( ) SI_UNIT ( $, .RADIAN. ) );
#233 = CYLINDRICAL_SURFACE ( 'NONE', #246, 20.00000000000000000 ) ;
#234 = DIRECTION ( 'NONE',  ( 0.000000000000000000, 0.000000000000000000, 1.000000000000000000 ) ) ;
#235 = ORIENTED_EDGE ( 'NONE', *, *, #194, .F. ) ;
#236 = CC_DESIGN_PERSON_AND_ORGANIZATION_ASSIGNMENT ( #9, #206, ( #83 ) ) ;
#237 = DIRECTION ( 'NONE',  ( 0.000000000000000000, 0.000000000000000000, -1.000000000000000000 ) ) ;
#238 = LOCAL_TIME ( 8, 57, 28.00000000000000000, #7 ) ;
#239 = PERSON_AND_ORGANIZATION ( #247, #137 ) ;
#240 = CIRCLE ( 'NONE', #142, 20.00000000000000000 ) ;
#241 = ORIENTED_EDGE ( 'NONE', *, *, #67, .T. ) ;
#242 = DIRECTION ( 'NONE',  ( 1.000000000000000000, 0.000000000000000000, 0.000000000000000000 ) ) ;
#243 = APPROVAL ( #205, 'UNSPECIFIED' ) ;
#244 = EDGE_LOOP ( 'NONE', ( #32, #135 ) ) ;
#245 = APPROVAL_ROLE ( '' ) ;
#246 = AXIS2_PLACEMENT_3D ( 'NONE', #42, #153, #220 ) ;
#247 = PERSON ( 'UNSPECIFIED', 'UNSPECIFIED', 'UNSPECIFIED', ('UNSPECIFIED'), ('UNSPECIFIED'), ('UNSPECIFIED') ) ;
#248 = CYLINDRICAL_SURFACE ( 'NONE', #230, 5.250000000000000000 ) ;
#249 = EDGE_CURVE ( 'NONE', #76, #26, #53, .T. ) ;
ENDSEC;
END-ISO-10303-21;
