ISO-10303-21;
HEADER;
FILE_DESCRIPTION (( 'STEP AP203' ),
    '1' );
FILE_NAME ('bj724-08001.STEP',
    '2021-10-25T00:00:33',
    ( '' ),
    ( '' ),
    'SwSTEP 2.0',
    'SolidWorks 2020',
    '' );
FILE_SCHEMA (( 'CONFIG_CONTROL_DESIGN' ));
ENDSEC;

DATA;
#1 = CIRCLE ( 'NONE', #30, 6.000000000000000000 ) ;
#2 = APPROVAL_ROLE ( '' ) ;
#3 = ORIENTED_EDGE ( 'NONE', *, *, #151, .F. ) ;
#4 = CC_DESIGN_PERSON_AND_ORGANIZATION_ASSIGNMENT ( #210, #228, ( #238 ) ) ;
#5 = ORIENTED_EDGE ( 'NONE', *, *, #49, .T. ) ;
#6 = DIRECTION ( 'NONE',  ( 1.000000000000000000, 0.000000000000000000, 0.000000000000000000 ) ) ;
#7 = FACE_BOUND ( 'NONE', #42, .T. ) ;
#8 = EDGE_CURVE ( 'NONE', #214, #178, #199, .T. ) ;
#9 = DIRECTION ( 'NONE',  ( 1.000000000000000000, 0.000000000000000000, 0.000000000000000000 ) ) ;
#10 = CARTESIAN_POINT ( 'NONE',  ( -6.000000000000000000, 7.347880794884119736E-16, 15.00000000000000000 ) ) ;
#11 = CARTESIAN_POINT ( 'NONE',  ( 0.000000000000000000, 0.000000000000000000, 30.00000000000000000 ) ) ;
#12 = APPROVAL ( #95, 'UNSPECIFIED' ) ;
#13 = DIRECTION ( 'NONE',  ( 1.000000000000000000, 0.000000000000000000, 0.000000000000000000 ) ) ;
#14 = AXIS2_PLACEMENT_3D ( 'NONE', #161, #31, #107 ) ;
#15 = AXIS2_PLACEMENT_3D ( 'NONE', #216, #122, #219 ) ;
#16 = CARTESIAN_POINT ( 'NONE',  ( -6.000000000000000000, 7.347880794884119736E-16, -3.469446951953614978E-15 ) ) ;
#17 = CARTESIAN_POINT ( 'NONE',  ( 4.250000000000000000, 0.000000000000000000, 30.00000000000000000 ) ) ;
#18 = COORDINATED_UNIVERSAL_TIME_OFFSET ( 9, 0, .AHEAD. ) ;
#19 = SHAPE_DEFINITION_REPRESENTATION ( #142, #22 ) ;
#20 = PERSON_AND_ORGANIZATION ( #226, #188 ) ;
#21 = DATE_AND_TIME ( #93, #126 ) ;
#22 = ADVANCED_BREP_SHAPE_REPRESENTATION ( 'bj724-08001', ( #28, #164 ), #84 ) ;
#23 = ORIENTED_EDGE ( 'NONE', *, *, #26, .T. ) ;
#24 = EDGE_LOOP ( 'NONE', ( #79, #98 ) ) ;
#25 = CIRCLE ( 'NONE', #15, 6.000000000000000000 ) ;
#26 = EDGE_CURVE ( 'NONE', #124, #218, #97, .T. ) ;
#27 = DIRECTION ( 'NONE',  ( 1.000000000000000000, 0.000000000000000000, 0.000000000000000000 ) ) ;
#28 = MANIFOLD_SOLID_BREP ( 'Imported1', #179 ) ;
#29 = CARTESIAN_POINT ( 'NONE',  ( 0.000000000000000000, 0.000000000000000000, -3.469446951953614978E-15 ) ) ;
#30 = AXIS2_PLACEMENT_3D ( 'NONE', #70, #246, #143 ) ;
#31 = DIRECTION ( 'NONE',  ( 0.000000000000000000, 0.000000000000000000, 1.000000000000000000 ) ) ;
#32 = DIRECTION ( 'NONE',  ( 1.000000000000000000, 0.000000000000000000, 0.000000000000000000 ) ) ;
#33 = FACE_OUTER_BOUND ( 'NONE', #190, .T. ) ;
#34 = ADVANCED_FACE ( 'NONE', ( #174 ), #237, .T. ) ;
#35 = CARTESIAN_POINT ( 'NONE',  ( 6.000000000000000000, 0.000000000000000000, -3.469446951953614978E-15 ) ) ;
#36 = APPLICATION_PROTOCOL_DEFINITION ( 'international standard', 'config_control_design', 1994, #154 ) ;
#37 = APPROVAL_DATE_TIME ( #150, #66 ) ;
#38 = ORIENTED_EDGE ( 'NONE', *, *, #123, .T. ) ;
#39 = COORDINATED_UNIVERSAL_TIME_OFFSET ( 9, 0, .AHEAD. ) ;
#40 = APPROVAL_STATUS ( 'not_yet_approved' ) ;
#41 = EDGE_LOOP ( 'NONE', ( #193, #82 ) ) ;
#42 = EDGE_LOOP ( 'NONE', ( #135, #209 ) ) ;
#43 = DIRECTION ( 'NONE',  ( 0.000000000000000000, 0.000000000000000000, 1.000000000000000000 ) ) ;
#44 = VECTOR ( 'NONE', #48, 1000.000000000000000 ) ;
#45 = AXIS2_PLACEMENT_3D ( 'NONE', #197, #46, #27 ) ;
#46 = DIRECTION ( 'NONE',  ( 0.000000000000000000, 0.000000000000000000, 1.000000000000000000 ) ) ;
#47 = ORIENTED_EDGE ( 'NONE', *, *, #151, .T. ) ;
#48 = DIRECTION ( 'NONE',  ( 0.000000000000000000, 0.000000000000000000, 1.000000000000000000 ) ) ;
#49 = EDGE_CURVE ( 'NONE', #214, #117, #145, .T. ) ;
#50 = VECTOR ( 'NONE', #64, 1000.000000000000000 ) ;
#51 = CYLINDRICAL_SURFACE ( 'NONE', #121, 4.250000000000000000 ) ;
#52 =( NAMED_UNIT ( * ) PLANE_ANGLE_UNIT ( ) SI_UNIT ( $, .RADIAN. ) );
#53 = EDGE_CURVE ( 'NONE', #117, #99, #136, .T. ) ;
#54 = DIRECTION ( 'NONE',  ( 1.000000000000000000, 0.000000000000000000, 0.000000000000000000 ) ) ;
#55 = CARTESIAN_POINT ( 'NONE',  ( 0.000000000000000000, 0.000000000000000000, 15.00000000000000000 ) ) ;
#56 = APPLICATION_PROTOCOL_DEFINITION ( 'international standard', 'config_control_design', 1994, #86 ) ;
#57 = PERSON_AND_ORGANIZATION_ROLE ( 'classification_officer' ) ;
#58 = CC_DESIGN_DATE_AND_TIME_ASSIGNMENT ( #21, #60, ( #240 ) ) ;
#59 = CIRCLE ( 'NONE', #14, 4.250000000000000000 ) ;
#60 = DATE_TIME_ROLE ( 'classification_date' ) ;
#61 = EDGE_CURVE ( 'NONE', #117, #214, #25, .T. ) ;
#62 = CALENDAR_DATE ( 2021, 25, 10 ) ;
#63 = ORIENTED_EDGE ( 'NONE', *, *, #181, .F. ) ;
#64 = DIRECTION ( 'NONE',  ( 0.000000000000000000, 0.000000000000000000, 1.000000000000000000 ) ) ;
#65 = DIRECTION ( 'NONE',  ( 1.000000000000000000, 0.000000000000000000, 0.000000000000000000 ) ) ;
#66 = APPROVAL ( #40, 'UNSPECIFIED' ) ;
#67 = LOCAL_TIME ( 9, 0, 33.00000000000000000, #172 ) ;
#68 = CARTESIAN_POINT ( 'NONE',  ( 0.000000000000000000, 0.000000000000000000, 15.00000000000000000 ) ) ;
#69 = CARTESIAN_POINT ( 'NONE',  ( -4.250000000000000000, 5.204748896376250699E-16, -3.469446951953614978E-15 ) ) ;
#70 = CARTESIAN_POINT ( 'NONE',  ( 0.000000000000000000, 0.000000000000000000, 15.00000000000000000 ) ) ;
#71 = DIRECTION ( 'NONE',  ( 1.000000000000000000, 0.000000000000000000, 0.000000000000000000 ) ) ;
#72 = UNCERTAINTY_MEASURE_WITH_UNIT (LENGTH_MEASURE( 1.000000000000000082E-05 ), #222, 'distance_accuracy_value', 'NONE');
#73 = DIRECTION ( 'NONE',  ( 1.000000000000000000, 0.000000000000000000, 0.000000000000000000 ) ) ;
#74 = PRODUCT_DEFINITION_FORMATION_WITH_SPECIFIED_SOURCE ( 'ANY', '', #221, .NOT_KNOWN. ) ;
#75 = DESIGN_CONTEXT ( 'detailed design', #154, 'design' ) ;
#76 = DIRECTION ( 'NONE',  ( 1.000000000000000000, 0.000000000000000000, 0.000000000000000000 ) ) ;
#77 = COORDINATED_UNIVERSAL_TIME_OFFSET ( 9, 0, .AHEAD. ) ;
#78 = PERSON_AND_ORGANIZATION ( #226, #188 ) ;
#79 = ORIENTED_EDGE ( 'NONE', *, *, #234, .T. ) ;
#80 = CIRCLE ( 'NONE', #138, 6.000000000000000000 ) ;
#81 = CARTESIAN_POINT ( 'NONE',  ( 0.000000000000000000, 0.000000000000000000, -3.469446951953614978E-15 ) ) ;
#82 = ORIENTED_EDGE ( 'NONE', *, *, #61, .F. ) ;
#83 = DIRECTION ( 'NONE',  ( 0.000000000000000000, 0.000000000000000000, 1.000000000000000000 ) ) ;
#84 =( GEOMETRIC_REPRESENTATION_CONTEXT ( 3 ) GLOBAL_UNCERTAINTY_ASSIGNED_CONTEXT ( ( #72 ) ) GLOBAL_UNIT_ASSIGNED_CONTEXT ( ( #222, #52, #147 ) ) REPRESENTATION_CONTEXT ( 'NONE', 'WORKASPACE' ) );
#85 = LINE ( 'NONE', #17, #44 ) ;
#86 = APPLICATION_CONTEXT ( 'configuration controlled 3d designs of mechanical parts and assemblies' ) ;
#87 = DIRECTION ( 'NONE',  ( 0.000000000000000000, 0.000000000000000000, 1.000000000000000000 ) ) ;
#88 = CARTESIAN_POINT ( 'NONE',  ( -4.250000000000000000, 5.204748896376250699E-16, 30.00000000000000000 ) ) ;
#89 = CC_DESIGN_SECURITY_CLASSIFICATION ( #240, ( #74 ) ) ;
#90 = FACE_OUTER_BOUND ( 'NONE', #233, .T. ) ;
#91 = CARTESIAN_POINT ( 'NONE',  ( 0.000000000000000000, 0.000000000000000000, 30.00000000000000000 ) ) ;
#92 = EDGE_CURVE ( 'NONE', #119, #104, #116, .T. ) ;
#93 = CALENDAR_DATE ( 2021, 25, 10 ) ;
#94 = PERSON_AND_ORGANIZATION ( #226, #188 ) ;
#95 = APPROVAL_STATUS ( 'not_yet_approved' ) ;
#96 = ADVANCED_FACE ( 'NONE', ( #103, #7 ), #139, .T. ) ;
#97 = CIRCLE ( 'NONE', #244, 4.250000000000000000 ) ;
#98 = ORIENTED_EDGE ( 'NONE', *, *, #181, .T. ) ;
#99 = VERTEX_POINT ( 'NONE', #10 ) ;
#100 = ORIENTED_EDGE ( 'NONE', *, *, #92, .T. ) ;
#101 = ADVANCED_FACE ( 'NONE', ( #165, #182 ), #105, .T. ) ;
#102 = ORIENTED_EDGE ( 'NONE', *, *, #123, .F. ) ;
#103 = FACE_OUTER_BOUND ( 'NONE', #24, .T. ) ;
#104 = VERTEX_POINT ( 'NONE', #69 ) ;
#105 = PLANE ( 'NONE',  #196 ) ;
#106 = AXIS2_PLACEMENT_3D ( 'NONE', #91, #163, #71 ) ;
#107 = DIRECTION ( 'NONE',  ( 1.000000000000000000, 0.000000000000000000, 0.000000000000000000 ) ) ;
#108 = CARTESIAN_POINT ( 'NONE',  ( 4.250000000000000000, 0.000000000000000000, 15.00000000000000000 ) ) ;
#109 = CC_DESIGN_PERSON_AND_ORGANIZATION_ASSIGNMENT ( #20, #249, ( #221 ) ) ;
#110 = DIRECTION ( 'NONE',  ( -1.000000000000000000, 0.000000000000000000, 0.000000000000000000 ) ) ;
#111 = AXIS2_PLACEMENT_3D ( 'NONE', #81, #236, #65 ) ;
#112 = PERSON_AND_ORGANIZATION ( #226, #188 ) ;
#113 = PERSON_AND_ORGANIZATION_ROLE ( 'creator' ) ;
#114 = PERSON_AND_ORGANIZATION ( #226, #188 ) ;
#115 = DIRECTION ( 'NONE',  ( 0.000000000000000000, 0.000000000000000000, 1.000000000000000000 ) ) ;
#116 = CIRCLE ( 'NONE', #45, 4.250000000000000000 ) ;
#117 = VERTEX_POINT ( 'NONE', #16 ) ;
#118 = CC_DESIGN_DATE_AND_TIME_ASSIGNMENT ( #212, #207, ( #238 ) ) ;
#119 = VERTEX_POINT ( 'NONE', #245 ) ;
#120 = AXIS2_PLACEMENT_3D ( 'NONE', #29, #127, #73 ) ;
#121 = AXIS2_PLACEMENT_3D ( 'NONE', #220, #202, #13 ) ;
#122 = DIRECTION ( 'NONE',  ( 0.000000000000000000, 0.000000000000000000, 1.000000000000000000 ) ) ;
#123 = EDGE_CURVE ( 'NONE', #104, #119, #229, .T. ) ;
#124 = VERTEX_POINT ( 'NONE', #141 ) ;
#125 = CARTESIAN_POINT ( 'NONE',  ( 6.000000000000000000, 0.000000000000000000, -4.163661602996085045E-15 ) ) ;
#126 = LOCAL_TIME ( 9, 0, 33.00000000000000000, #77 ) ;
#127 = DIRECTION ( 'NONE',  ( 0.000000000000000000, 0.000000000000000000, 1.000000000000000000 ) ) ;
#128 = DIRECTION ( 'NONE',  ( 0.000000000000000000, 0.000000000000000000, 1.000000000000000000 ) ) ;
#129 = APPROVAL_DATE_TIME ( #224, #192 ) ;
#130 = APPROVAL_DATE_TIME ( #187, #12 ) ;
#131 = EDGE_CURVE ( 'NONE', #119, #218, #85, .T. ) ;
#132 = APPROVAL_STATUS ( 'not_yet_approved' ) ;
#133 = CC_DESIGN_APPROVAL ( #66, ( #74 ) ) ;
#134 = ORIENTED_EDGE ( 'NONE', *, *, #8, .F. ) ;
#135 = ORIENTED_EDGE ( 'NONE', *, *, #168, .F. ) ;
#136 = LINE ( 'NONE', #198, #239 ) ;
#137 = ADVANCED_FACE ( 'NONE', ( #180 ), #51, .F. ) ;
#138 = AXIS2_PLACEMENT_3D ( 'NONE', #55, #186, #32 ) ;
#139 = PLANE ( 'NONE',  #200 ) ;
#140 = EDGE_LOOP ( 'NONE', ( #100, #38 ) ) ;
#141 = CARTESIAN_POINT ( 'NONE',  ( -4.250000000000000000, 5.204748896376250699E-16, 15.00000000000000000 ) ) ;
#142 = PRODUCT_DEFINITION_SHAPE ( 'NONE', 'NONE',  #238 ) ;
#143 = DIRECTION ( 'NONE',  ( 1.000000000000000000, 0.000000000000000000, 0.000000000000000000 ) ) ;
#144 = CC_DESIGN_PERSON_AND_ORGANIZATION_ASSIGNMENT ( #112, #57, ( #240 ) ) ;
#145 = CIRCLE ( 'NONE', #111, 6.000000000000000000 ) ;
#146 = DIRECTION ( 'NONE',  ( 0.000000000000000000, 0.000000000000000000, 1.000000000000000000 ) ) ;
#147 =( NAMED_UNIT ( * ) SI_UNIT ( $, .STERADIAN. ) SOLID_ANGLE_UNIT ( ) );
#148 = APPROVAL_ROLE ( '' ) ;
#149 = CALENDAR_DATE ( 2021, 25, 10 ) ;
#150 = DATE_AND_TIME ( #149, #205 ) ;
#151 = EDGE_CURVE ( 'NONE', #104, #124, #203, .T. ) ;
#152 = AXIS2_PLACEMENT_3D ( 'NONE', #11, #87, #162 ) ;
#153 = PERSON_AND_ORGANIZATION ( #226, #188 ) ;
#154 = APPLICATION_CONTEXT ( 'configuration controlled 3d designs of mechanical parts and assemblies' ) ;
#155 = ORIENTED_EDGE ( 'NONE', *, *, #53, .T. ) ;
#156 = ORIENTED_EDGE ( 'NONE', *, *, #131, .T. ) ;
#157 = EDGE_LOOP ( 'NONE', ( #3, #194, #156, #158 ) ) ;
#158 = ORIENTED_EDGE ( 'NONE', *, *, #168, .T. ) ;
#159 = DIRECTION ( 'NONE',  ( 0.000000000000000000, 0.000000000000000000, 1.000000000000000000 ) ) ;
#160 = EDGE_LOOP ( 'NONE', ( #5, #155, #175, #134 ) ) ;
#161 = CARTESIAN_POINT ( 'NONE',  ( 0.000000000000000000, 0.000000000000000000, 15.00000000000000000 ) ) ;
#162 = DIRECTION ( 'NONE',  ( 1.000000000000000000, 0.000000000000000000, 0.000000000000000000 ) ) ;
#163 = DIRECTION ( 'NONE',  ( 0.000000000000000000, 0.000000000000000000, 1.000000000000000000 ) ) ;
#164 = AXIS2_PLACEMENT_3D ( 'NONE', #247, #115, #76 ) ;
#165 = FACE_BOUND ( 'NONE', #140, .T. ) ;
#166 = APPROVAL_PERSON_ORGANIZATION ( #94, #66, #169 ) ;
#167 = MECHANICAL_CONTEXT ( 'NONE', #86, 'mechanical' ) ;
#168 = EDGE_CURVE ( 'NONE', #218, #124, #59, .T. ) ;
#169 = APPROVAL_ROLE ( '' ) ;
#170 = COORDINATED_UNIVERSAL_TIME_OFFSET ( 9, 0, .AHEAD. ) ;
#171 = VECTOR ( 'NONE', #146, 1000.000000000000000 ) ;
#172 = COORDINATED_UNIVERSAL_TIME_OFFSET ( 9, 0, .AHEAD. ) ;
#173 = ORIENTED_EDGE ( 'NONE', *, *, #53, .F. ) ;
#174 = FACE_OUTER_BOUND ( 'NONE', #160, .T. ) ;
#175 = ORIENTED_EDGE ( 'NONE', *, *, #234, .F. ) ;
#176 = CARTESIAN_POINT ( 'NONE',  ( 0.000000000000000000, 0.000000000000000000, 30.00000000000000000 ) ) ;
#177 = ORIENTED_EDGE ( 'NONE', *, *, #131, .F. ) ;
#178 = VERTEX_POINT ( 'NONE', #184 ) ;
#179 = CLOSED_SHELL ( 'NONE', ( #34, #231, #96, #137, #101, #211 ) ) ;
#180 = FACE_OUTER_BOUND ( 'NONE', #157, .T. ) ;
#181 = EDGE_CURVE ( 'NONE', #99, #178, #80, .T. ) ;
#182 = FACE_OUTER_BOUND ( 'NONE', #41, .T. ) ;
#183 = CARTESIAN_POINT ( 'NONE',  ( 4.250000000000000000, 0.000000000000000000, 15.00000000000000000 ) ) ;
#184 = CARTESIAN_POINT ( 'NONE',  ( 6.000000000000000000, 0.000000000000000000, 15.00000000000000000 ) ) ;
#185 = APPROVAL_PERSON_ORGANIZATION ( #153, #12, #2 ) ;
#186 = DIRECTION ( 'NONE',  ( 0.000000000000000000, 0.000000000000000000, 1.000000000000000000 ) ) ;
#187 = DATE_AND_TIME ( #248, #230 ) ;
#188 = ORGANIZATION ( 'UNSPECIFIED', 'UNSPECIFIED', '' ) ;
#189 = CC_DESIGN_PERSON_AND_ORGANIZATION_ASSIGNMENT ( #114, #206, ( #74 ) ) ;
#190 = EDGE_LOOP ( 'NONE', ( #102, #47, #23, #177 ) ) ;
#191 = PERSON_AND_ORGANIZATION ( #226, #188 ) ;
#192 = APPROVAL ( #132, 'UNSPECIFIED' ) ;
#193 = ORIENTED_EDGE ( 'NONE', *, *, #49, .F. ) ;
#194 = ORIENTED_EDGE ( 'NONE', *, *, #92, .F. ) ;
#195 = APPROVAL_PERSON_ORGANIZATION ( #78, #192, #148 ) ;
#196 = AXIS2_PLACEMENT_3D ( 'NONE', #125, #204, #110 ) ;
#197 = CARTESIAN_POINT ( 'NONE',  ( 0.000000000000000000, 0.000000000000000000, -3.469446951953614978E-15 ) ) ;
#198 = CARTESIAN_POINT ( 'NONE',  ( -6.000000000000000000, 7.347880794884119736E-16, 30.00000000000000000 ) ) ;
#199 = LINE ( 'NONE', #235, #50 ) ;
#200 = AXIS2_PLACEMENT_3D ( 'NONE', #183, #128, #54 ) ;
#201 = CC_DESIGN_APPROVAL ( #12, ( #240 ) ) ;
#202 = DIRECTION ( 'NONE',  ( 0.000000000000000000, 0.000000000000000000, 1.000000000000000000 ) ) ;
#203 = LINE ( 'NONE', #88, #171 ) ;
#204 = DIRECTION ( 'NONE',  ( 0.000000000000000000, 0.000000000000000000, -1.000000000000000000 ) ) ;
#205 = LOCAL_TIME ( 9, 0, 33.00000000000000000, #39 ) ;
#206 = PERSON_AND_ORGANIZATION_ROLE ( 'design_supplier' ) ;
#207 = DATE_TIME_ROLE ( 'creation_date' ) ;
#208 = CC_DESIGN_PERSON_AND_ORGANIZATION_ASSIGNMENT ( #191, #113, ( #74 ) ) ;
#209 = ORIENTED_EDGE ( 'NONE', *, *, #26, .F. ) ;
#210 = PERSON_AND_ORGANIZATION ( #226, #188 ) ;
#211 = ADVANCED_FACE ( 'NONE', ( #90 ), #242, .T. ) ;
#212 = DATE_AND_TIME ( #62, #67 ) ;
#213 = AXIS2_PLACEMENT_3D ( 'NONE', #176, #159, #6 ) ;
#214 = VERTEX_POINT ( 'NONE', #35 ) ;
#215 = PRODUCT_RELATED_PRODUCT_CATEGORY ( 'detail', '', ( #221 ) ) ;
#216 = CARTESIAN_POINT ( 'NONE',  ( 0.000000000000000000, 0.000000000000000000, -3.469446951953614978E-15 ) ) ;
#217 = LOCAL_TIME ( 9, 0, 33.00000000000000000, #18 ) ;
#218 = VERTEX_POINT ( 'NONE', #108 ) ;
#219 = DIRECTION ( 'NONE',  ( 1.000000000000000000, 0.000000000000000000, 0.000000000000000000 ) ) ;
#220 = CARTESIAN_POINT ( 'NONE',  ( 0.000000000000000000, 0.000000000000000000, 30.00000000000000000 ) ) ;
#221 = PRODUCT ( 'bj724-08001', 'bj724-08001', '', ( #167 ) ) ;
#222 =( LENGTH_UNIT ( ) NAMED_UNIT ( * ) SI_UNIT ( .MILLI., .METRE. ) );
#223 = CC_DESIGN_APPROVAL ( #192, ( #238 ) ) ;
#224 = DATE_AND_TIME ( #232, #217 ) ;
#225 = ORIENTED_EDGE ( 'NONE', *, *, #61, .T. ) ;
#226 = PERSON ( 'UNSPECIFIED', 'UNSPECIFIED', 'UNSPECIFIED', ('UNSPECIFIED'), ('UNSPECIFIED'), ('UNSPECIFIED') ) ;
#227 = SECURITY_CLASSIFICATION_LEVEL ( 'unclassified' ) ;
#228 = PERSON_AND_ORGANIZATION_ROLE ( 'creator' ) ;
#229 = CIRCLE ( 'NONE', #120, 4.250000000000000000 ) ;
#230 = LOCAL_TIME ( 9, 0, 33.00000000000000000, #170 ) ;
#231 = ADVANCED_FACE ( 'NONE', ( #33 ), #243, .F. ) ;
#232 = CALENDAR_DATE ( 2021, 25, 10 ) ;
#233 = EDGE_LOOP ( 'NONE', ( #173, #225, #241, #63 ) ) ;
#234 = EDGE_CURVE ( 'NONE', #178, #99, #1, .T. ) ;
#235 = CARTESIAN_POINT ( 'NONE',  ( 6.000000000000000000, 0.000000000000000000, 30.00000000000000000 ) ) ;
#236 = DIRECTION ( 'NONE',  ( 0.000000000000000000, 0.000000000000000000, 1.000000000000000000 ) ) ;
#237 = CYLINDRICAL_SURFACE ( 'NONE', #213, 6.000000000000000000 ) ;
#238 = PRODUCT_DEFINITION ( 'UNKNOWN', '', #74, #75 ) ;
#239 = VECTOR ( 'NONE', #83, 1000.000000000000000 ) ;
#240 = SECURITY_CLASSIFICATION ( '', '', #227 ) ;
#241 = ORIENTED_EDGE ( 'NONE', *, *, #8, .T. ) ;
#242 = CYLINDRICAL_SURFACE ( 'NONE', #152, 6.000000000000000000 ) ;
#243 = CYLINDRICAL_SURFACE ( 'NONE', #106, 4.250000000000000000 ) ;
#244 = AXIS2_PLACEMENT_3D ( 'NONE', #68, #43, #9 ) ;
#245 = CARTESIAN_POINT ( 'NONE',  ( 4.250000000000000000, 0.000000000000000000, -3.469446951953614978E-15 ) ) ;
#246 = DIRECTION ( 'NONE',  ( 0.000000000000000000, 0.000000000000000000, 1.000000000000000000 ) ) ;
#247 = CARTESIAN_POINT ( 'NONE',  ( 0.000000000000000000, 0.000000000000000000, 0.000000000000000000 ) ) ;
#248 = CALENDAR_DATE ( 2021, 25, 10 ) ;
#249 = PERSON_AND_ORGANIZATION_ROLE ( 'design_owner' ) ;
ENDSEC;
END-ISO-10303-21;
