ISO-10303-21;
HEADER;
FILE_DESCRIPTION (( 'STEP AP203' ),
    '1' );
FILE_NAME ('bj300-12040.STEP',
    '2021-10-24T23:51:20',
    ( '' ),
    ( '' ),
    'SwSTEP 2.0',
    'SolidWorks 2020',
    '' );
FILE_SCHEMA (( 'CONFIG_CONTROL_DESIGN' ));
ENDSEC;

DATA;
#1 = PERSON_AND_ORGANIZATION ( #36, #97 ) ;
#2 = LINE ( 'NONE', #193, #301 ) ;
#3 = DIRECTION ( 'NONE',  ( 0.000000000000000000, 0.000000000000000000, 1.000000000000000000 ) ) ;
#4 = CC_DESIGN_PERSON_AND_ORGANIZATION_ASSIGNMENT ( #81, #128, ( #232 ) ) ;
#5 = CLOSED_SHELL ( 'NONE', ( #291, #215, #263, #272, #309, #253, #275, #187, #26 ) ) ;
#6 = APPROVAL_PERSON_ORGANIZATION ( #82, #311, #154 ) ;
#7 = CARTESIAN_POINT ( 'NONE',  ( -10.00000000000000000, 1.224646799147353256E-15, 40.00000000000000000 ) ) ;
#8 = ORIENTED_EDGE ( 'NONE', *, *, #93, .F. ) ;
#9 =( NAMED_UNIT ( * ) PLANE_ANGLE_UNIT ( ) SI_UNIT ( $, .RADIAN. ) );
#10 = AXIS2_PLACEMENT_3D ( 'NONE', #126, #19, #146 ) ;
#11 = DIRECTION ( 'NONE',  ( 0.000000000000000000, 0.000000000000000000, 1.000000000000000000 ) ) ;
#12 = DIRECTION ( 'NONE',  ( 0.000000000000000000, 0.000000000000000000, 1.000000000000000000 ) ) ;
#13 = ORIENTED_EDGE ( 'NONE', *, *, #165, .T. ) ;
#14 = EDGE_LOOP ( 'NONE', ( #8, #138 ) ) ;
#15 = APPROVAL_DATE_TIME ( #244, #202 ) ;
#16 = ORIENTED_EDGE ( 'NONE', *, *, #315, .T. ) ;
#17 = CIRCLE ( 'NONE', #195, 20.00000000000000000 ) ;
#18 = CARTESIAN_POINT ( 'NONE',  ( 0.000000000000000000, 0.000000000000000000, 40.00000000000000000 ) ) ;
#19 = DIRECTION ( 'NONE',  ( 0.000000000000000000, 0.000000000000000000, 1.000000000000000000 ) ) ;
#20 = CARTESIAN_POINT ( 'NONE',  ( 0.000000000000000000, 0.000000000000000000, 12.00000000000000000 ) ) ;
#21 = MECHANICAL_CONTEXT ( 'NONE', #171, 'mechanical' ) ;
#22 = FACE_OUTER_BOUND ( 'NONE', #323, .T. ) ;
#23 = DIRECTION ( 'NONE',  ( 0.000000000000000000, 0.000000000000000000, 1.000000000000000000 ) ) ;
#24 = APPROVAL_PERSON_ORGANIZATION ( #284, #202, #117 ) ;
#25 = DATE_AND_TIME ( #54, #281 ) ;
#26 = ADVANCED_FACE ( 'NONE', ( #70 ), #310, .F. ) ;
#27 = AXIS2_PLACEMENT_3D ( 'NONE', #50, #278, #173 ) ;
#28 = UNCERTAINTY_MEASURE_WITH_UNIT (LENGTH_MEASURE( 1.000000000000000082E-05 ), #137, 'distance_accuracy_value', 'NONE');
#29 = CC_DESIGN_DATE_AND_TIME_ASSIGNMENT ( #25, #200, ( #52 ) ) ;
#30 = CC_DESIGN_PERSON_AND_ORGANIZATION_ASSIGNMENT ( #129, #53, ( #232 ) ) ;
#31 = CYLINDRICAL_SURFACE ( 'NONE', #231, 7.000000000000000000 ) ;
#32 = ORIENTED_EDGE ( 'NONE', *, *, #315, .F. ) ;
#33 = ORIENTED_EDGE ( 'NONE', *, *, #268, .F. ) ;
#34 = EDGE_CURVE ( 'NONE', #238, #112, #108, .T. ) ;
#35 = FACE_OUTER_BOUND ( 'NONE', #140, .T. ) ;
#36 = PERSON ( 'UNSPECIFIED', 'UNSPECIFIED', 'UNSPECIFIED', ('UNSPECIFIED'), ('UNSPECIFIED'), ('UNSPECIFIED') ) ;
#37 = VERTEX_POINT ( 'NONE', #74 ) ;
#38 = CARTESIAN_POINT ( 'NONE',  ( 0.000000000000000000, 0.000000000000000000, 12.00000000000000000 ) ) ;
#39 = ORIENTED_EDGE ( 'NONE', *, *, #165, .F. ) ;
#40 = CARTESIAN_POINT ( 'NONE',  ( 0.000000000000000000, 0.000000000000000000, 12.00000000000000000 ) ) ;
#41 = ORIENTED_EDGE ( 'NONE', *, *, #298, .F. ) ;
#42 = ADVANCED_BREP_SHAPE_REPRESENTATION ( 'bj300-12040', ( #134, #10 ), #106 ) ;
#43 = DIRECTION ( 'NONE',  ( 0.000000000000000000, 0.000000000000000000, 1.000000000000000000 ) ) ;
#44 = AXIS2_PLACEMENT_3D ( 'NONE', #158, #207, #270 ) ;
#45 = CARTESIAN_POINT ( 'NONE',  ( 0.000000000000000000, 0.000000000000000000, 0.000000000000000000 ) ) ;
#46 = COORDINATED_UNIVERSAL_TIME_OFFSET ( 9, 0, .AHEAD. ) ;
#47 = VERTEX_POINT ( 'NONE', #123 ) ;
#48 = EDGE_CURVE ( 'NONE', #212, #47, #168, .T. ) ;
#49 = COORDINATED_UNIVERSAL_TIME_OFFSET ( 9, 0, .AHEAD. ) ;
#50 = CARTESIAN_POINT ( 'NONE',  ( 0.000000000000000000, 0.000000000000000000, 40.00000000000000000 ) ) ;
#51 = CARTESIAN_POINT ( 'NONE',  ( 20.00000000000000000, 0.000000000000000000, 0.000000000000000000 ) ) ;
#52 = SECURITY_CLASSIFICATION ( '', '', #313 ) ;
#53 = PERSON_AND_ORGANIZATION_ROLE ( 'design_supplier' ) ;
#54 = CALENDAR_DATE ( 2021, 25, 10 ) ;
#55 = COORDINATED_UNIVERSAL_TIME_OFFSET ( 9, 0, .AHEAD. ) ;
#56 = DIRECTION ( 'NONE',  ( 1.000000000000000000, 0.000000000000000000, 0.000000000000000000 ) ) ;
#57 = DIRECTION ( 'NONE',  ( 0.000000000000000000, 0.000000000000000000, 1.000000000000000000 ) ) ;
#58 = VERTEX_POINT ( 'NONE', #121 ) ;
#59 = DIRECTION ( 'NONE',  ( 0.000000000000000000, 0.000000000000000000, 1.000000000000000000 ) ) ;
#60 = ORIENTED_EDGE ( 'NONE', *, *, #223, .T. ) ;
#61 = DIRECTION ( 'NONE',  ( 1.000000000000000000, 0.000000000000000000, 0.000000000000000000 ) ) ;
#62 = VECTOR ( 'NONE', #100, 1000.000000000000000 ) ;
#63 = ORIENTED_EDGE ( 'NONE', *, *, #322, .F. ) ;
#64 = AXIS2_PLACEMENT_3D ( 'NONE', #92, #178, #185 ) ;
#65 = FACE_OUTER_BOUND ( 'NONE', #241, .T. ) ;
#66 = ORIENTED_EDGE ( 'NONE', *, *, #176, .T. ) ;
#67 = APPROVAL_STATUS ( 'not_yet_approved' ) ;
#68 = DIRECTION ( 'NONE',  ( -1.000000000000000000, 0.000000000000000000, 0.000000000000000000 ) ) ;
#69 = PERSON_AND_ORGANIZATION_ROLE ( 'design_owner' ) ;
#70 = FACE_OUTER_BOUND ( 'NONE', #124, .T. ) ;
#71 = COORDINATED_UNIVERSAL_TIME_OFFSET ( 9, 0, .AHEAD. ) ;
#72 = CC_DESIGN_APPROVAL ( #204, ( #232 ) ) ;
#73 = CARTESIAN_POINT ( 'NONE',  ( 0.000000000000000000, 0.000000000000000000, 40.00000000000000000 ) ) ;
#74 = CARTESIAN_POINT ( 'NONE',  ( -7.000000000000000000, 8.572527594031473190E-16, 0.000000000000000000 ) ) ;
#75 = PRODUCT_RELATED_PRODUCT_CATEGORY ( 'detail', '', ( #226 ) ) ;
#76 = PERSON_AND_ORGANIZATION ( #36, #97 ) ;
#77 = DIRECTION ( 'NONE',  ( 1.000000000000000000, 0.000000000000000000, 0.000000000000000000 ) ) ;
#78 = AXIS2_PLACEMENT_3D ( 'NONE', #245, #43, #103 ) ;
#79 = AXIS2_PLACEMENT_3D ( 'NONE', #101, #222, #68 ) ;
#80 = PRODUCT_DEFINITION_SHAPE ( 'NONE', 'NONE',  #229 ) ;
#81 = PERSON_AND_ORGANIZATION ( #36, #97 ) ;
#82 = PERSON_AND_ORGANIZATION ( #36, #97 ) ;
#83 = AXIS2_PLACEMENT_3D ( 'NONE', #18, #256, #269 ) ;
#84 = DIRECTION ( 'NONE',  ( 1.000000000000000000, 0.000000000000000000, 0.000000000000000000 ) ) ;
#85 = FACE_OUTER_BOUND ( 'NONE', #264, .T. ) ;
#86 = EDGE_LOOP ( 'NONE', ( #271, #293 ) ) ;
#87 = CIRCLE ( 'NONE', #251, 7.000000000000000000 ) ;
#88 = LOCAL_TIME ( 8, 51, 20.00000000000000000, #49 ) ;
#89 = CARTESIAN_POINT ( 'NONE',  ( 0.000000000000000000, 0.000000000000000000, 12.00000000000000000 ) ) ;
#90 = ORIENTED_EDGE ( 'NONE', *, *, #34, .F. ) ;
#91 = CARTESIAN_POINT ( 'NONE',  ( -7.000000000000000000, 8.572527594031473190E-16, 40.00000000000000000 ) ) ;
#92 = CARTESIAN_POINT ( 'NONE',  ( 0.000000000000000000, 0.000000000000000000, 40.00000000000000000 ) ) ;
#93 = EDGE_CURVE ( 'NONE', #194, #116, #249, .T. ) ;
#94 = CARTESIAN_POINT ( 'NONE',  ( 7.000000000000000000, 0.000000000000000000, 40.00000000000000000 ) ) ;
#95 = CC_DESIGN_PERSON_AND_ORGANIZATION_ASSIGNMENT ( #1, #164, ( #229 ) ) ;
#96 = AXIS2_PLACEMENT_3D ( 'NONE', #139, #57, #56 ) ;
#97 = ORGANIZATION ( 'UNSPECIFIED', 'UNSPECIFIED', '' ) ;
#98 = DIRECTION ( 'NONE',  ( 1.000000000000000000, 0.000000000000000000, 0.000000000000000000 ) ) ;
#99 = APPLICATION_PROTOCOL_DEFINITION ( 'international standard', 'config_control_design', 1994, #131 ) ;
#100 = DIRECTION ( 'NONE',  ( 0.000000000000000000, 0.000000000000000000, 1.000000000000000000 ) ) ;
#101 = CARTESIAN_POINT ( 'NONE',  ( 20.00000000000000000, 0.000000000000000000, 40.00000000000000000 ) ) ;
#102 = PERSON_AND_ORGANIZATION ( #36, #97 ) ;
#103 = DIRECTION ( 'NONE',  ( 1.000000000000000000, 0.000000000000000000, 0.000000000000000000 ) ) ;
#104 = ORIENTED_EDGE ( 'NONE', *, *, #268, .T. ) ;
#105 = APPROVAL_DATE_TIME ( #153, #311 ) ;
#106 =( GEOMETRIC_REPRESENTATION_CONTEXT ( 3 ) GLOBAL_UNCERTAINTY_ASSIGNED_CONTEXT ( ( #28 ) ) GLOBAL_UNIT_ASSIGNED_CONTEXT ( ( #137, #9, #107 ) ) REPRESENTATION_CONTEXT ( 'NONE', 'WORKASPACE' ) );
#107 =( NAMED_UNIT ( * ) SI_UNIT ( $, .STERADIAN. ) SOLID_ANGLE_UNIT ( ) );
#108 = CIRCLE ( 'NONE', #219, 10.00000000000000000 ) ;
#109 = AXIS2_PLACEMENT_3D ( 'NONE', #73, #150, #279 ) ;
#110 = DIRECTION ( 'NONE',  ( 1.000000000000000000, 0.000000000000000000, 0.000000000000000000 ) ) ;
#111 = ORIENTED_EDGE ( 'NONE', *, *, #224, .F. ) ;
#112 = VERTEX_POINT ( 'NONE', #220 ) ;
#113 = VECTOR ( 'NONE', #59, 1000.000000000000000 ) ;
#114 = DIRECTION ( 'NONE',  ( 0.000000000000000000, 0.000000000000000000, 1.000000000000000000 ) ) ;
#115 = ORIENTED_EDGE ( 'NONE', *, *, #203, .F. ) ;
#116 = VERTEX_POINT ( 'NONE', #191 ) ;
#117 = APPROVAL_ROLE ( '' ) ;
#118 = DIRECTION ( 'NONE',  ( 1.000000000000000000, 0.000000000000000000, 0.000000000000000000 ) ) ;
#119 = VECTOR ( 'NONE', #155, 1000.000000000000000 ) ;
#120 = CALENDAR_DATE ( 2021, 25, 10 ) ;
#121 = CARTESIAN_POINT ( 'NONE',  ( 20.00000000000000000, 0.000000000000000000, 40.00000000000000000 ) ) ;
#122 = DATE_TIME_ROLE ( 'creation_date' ) ;
#123 = CARTESIAN_POINT ( 'NONE',  ( -20.00000000000000000, 2.449293598294706513E-15, 40.00000000000000000 ) ) ;
#124 = EDGE_LOOP ( 'NONE', ( #33, #32, #179, #250 ) ) ;
#125 = VECTOR ( 'NONE', #11, 1000.000000000000000 ) ;
#126 = CARTESIAN_POINT ( 'NONE',  ( 0.000000000000000000, 0.000000000000000000, 0.000000000000000000 ) ) ;
#127 = DIRECTION ( 'NONE',  ( 0.000000000000000000, 0.000000000000000000, 1.000000000000000000 ) ) ;
#128 = PERSON_AND_ORGANIZATION_ROLE ( 'creator' ) ;
#129 = PERSON_AND_ORGANIZATION ( #36, #97 ) ;
#130 = EDGE_CURVE ( 'NONE', #190, #58, #2, .T. ) ;
#131 = APPLICATION_CONTEXT ( 'configuration controlled 3d designs of mechanical parts and assemblies' ) ;
#132 = CC_DESIGN_DATE_AND_TIME_ASSIGNMENT ( #167, #122, ( #229 ) ) ;
#133 = CIRCLE ( 'NONE', #326, 20.00000000000000000 ) ;
#134 = MANIFOLD_SOLID_BREP ( 'Imported1', #5 ) ;
#135 = ORIENTED_EDGE ( 'NONE', *, *, #298, .T. ) ;
#136 = EDGE_CURVE ( 'NONE', #47, #58, #230, .T. ) ;
#137 =( LENGTH_UNIT ( ) NAMED_UNIT ( * ) SI_UNIT ( .MILLI., .METRE. ) );
#138 = ORIENTED_EDGE ( 'NONE', *, *, #192, .F. ) ;
#139 = CARTESIAN_POINT ( 'NONE',  ( 0.000000000000000000, 0.000000000000000000, 40.00000000000000000 ) ) ;
#140 = EDGE_LOOP ( 'NONE', ( #90, #104, #160, #177 ) ) ;
#141 = LOCAL_TIME ( 8, 51, 20.00000000000000000, #71 ) ;
#142 = CARTESIAN_POINT ( 'NONE',  ( 7.000000000000000000, 0.000000000000000000, 12.00000000000000000 ) ) ;
#143 = CALENDAR_DATE ( 2021, 25, 10 ) ;
#144 = CARTESIAN_POINT ( 'NONE',  ( 0.000000000000000000, 0.000000000000000000, 0.000000000000000000 ) ) ;
#145 = AXIS2_PLACEMENT_3D ( 'NONE', #152, #166, #77 ) ;
#146 = DIRECTION ( 'NONE',  ( 1.000000000000000000, 0.000000000000000000, 0.000000000000000000 ) ) ;
#147 = DIRECTION ( 'NONE',  ( 1.000000000000000000, 0.000000000000000000, 0.000000000000000000 ) ) ;
#148 = EDGE_CURVE ( 'NONE', #190, #212, #133, .T. ) ;
#149 = CALENDAR_DATE ( 2021, 25, 10 ) ;
#150 = DIRECTION ( 'NONE',  ( 0.000000000000000000, 0.000000000000000000, 1.000000000000000000 ) ) ;
#151 = CARTESIAN_POINT ( 'NONE',  ( 0.000000000000000000, 0.000000000000000000, 40.00000000000000000 ) ) ;
#152 = CARTESIAN_POINT ( 'NONE',  ( 0.000000000000000000, 0.000000000000000000, 40.00000000000000000 ) ) ;
#153 = DATE_AND_TIME ( #201, #170 ) ;
#154 = APPROVAL_ROLE ( '' ) ;
#155 = DIRECTION ( 'NONE',  ( 0.000000000000000000, 0.000000000000000000, 1.000000000000000000 ) ) ;
#156 = CARTESIAN_POINT ( 'NONE',  ( 0.000000000000000000, 0.000000000000000000, 40.00000000000000000 ) ) ;
#157 = EDGE_LOOP ( 'NONE', ( #213, #183, #277, #199 ) ) ;
#158 = CARTESIAN_POINT ( 'NONE',  ( 10.00000000000000000, 0.000000000000000000, 12.00000000000000000 ) ) ;
#159 = LINE ( 'NONE', #7, #113 ) ;
#160 = ORIENTED_EDGE ( 'NONE', *, *, #192, .T. ) ;
#161 = AXIS2_PLACEMENT_3D ( 'NONE', #265, #258, #266 ) ;
#162 = FACE_BOUND ( 'NONE', #240, .T. ) ;
#163 = ORIENTED_EDGE ( 'NONE', *, *, #248, .T. ) ;
#164 = PERSON_AND_ORGANIZATION_ROLE ( 'creator' ) ;
#165 = EDGE_CURVE ( 'NONE', #37, #186, #180, .T. ) ;
#166 = DIRECTION ( 'NONE',  ( 0.000000000000000000, 0.000000000000000000, 1.000000000000000000 ) ) ;
#167 = DATE_AND_TIME ( #120, #88 ) ;
#168 = LINE ( 'NONE', #285, #62 ) ;
#169 = AXIS2_PLACEMENT_3D ( 'NONE', #302, #227, #234 ) ;
#170 = LOCAL_TIME ( 8, 51, 20.00000000000000000, #257 ) ;
#171 = APPLICATION_CONTEXT ( 'configuration controlled 3d designs of mechanical parts and assemblies' ) ;
#172 = DIRECTION ( 'NONE',  ( 0.000000000000000000, 0.000000000000000000, 1.000000000000000000 ) ) ;
#173 = DIRECTION ( 'NONE',  ( 1.000000000000000000, 0.000000000000000000, 0.000000000000000000 ) ) ;
#174 = CARTESIAN_POINT ( 'NONE',  ( 10.00000000000000000, 0.000000000000000000, 40.00000000000000000 ) ) ;
#175 = CIRCLE ( 'NONE', #161, 20.00000000000000000 ) ;
#176 = EDGE_CURVE ( 'NONE', #186, #37, #259, .T. ) ;
#177 = ORIENTED_EDGE ( 'NONE', *, *, #305, .F. ) ;
#178 = DIRECTION ( 'NONE',  ( 0.000000000000000000, 0.000000000000000000, 1.000000000000000000 ) ) ;
#179 = ORIENTED_EDGE ( 'NONE', *, *, #305, .T. ) ;
#180 = CIRCLE ( 'NONE', #78, 7.000000000000000000 ) ;
#181 = CARTESIAN_POINT ( 'NONE',  ( -10.00000000000000000, 1.224646799147353256E-15, 12.00000000000000000 ) ) ;
#182 = CYLINDRICAL_SURFACE ( 'NONE', #96, 20.00000000000000000 ) ;
#183 = ORIENTED_EDGE ( 'NONE', *, *, #176, .F. ) ;
#184 = LINE ( 'NONE', #296, #260 ) ;
#185 = DIRECTION ( 'NONE',  ( 1.000000000000000000, 0.000000000000000000, 0.000000000000000000 ) ) ;
#186 = VERTEX_POINT ( 'NONE', #329 ) ;
#187 = ADVANCED_FACE ( 'NONE', ( #283, #304 ), #307, .F. ) ;
#188 = LINE ( 'NONE', #91, #125 ) ;
#189 = PLANE ( 'NONE',  #169 ) ;
#190 = VERTEX_POINT ( 'NONE', #51 ) ;
#191 = CARTESIAN_POINT ( 'NONE',  ( -10.00000000000000000, 1.224646799147353256E-15, 40.00000000000000000 ) ) ;
#192 = EDGE_CURVE ( 'NONE', #116, #194, #255, .T. ) ;
#193 = CARTESIAN_POINT ( 'NONE',  ( 20.00000000000000000, 0.000000000000000000, 40.00000000000000000 ) ) ;
#194 = VERTEX_POINT ( 'NONE', #174 ) ;
#195 = AXIS2_PLACEMENT_3D ( 'NONE', #197, #172, #247 ) ;
#196 = APPROVAL_DATE_TIME ( #246, #204 ) ;
#197 = CARTESIAN_POINT ( 'NONE',  ( 0.000000000000000000, 0.000000000000000000, 40.00000000000000000 ) ) ;
#198 = APPLICATION_PROTOCOL_DEFINITION ( 'international standard', 'config_control_design', 1994, #171 ) ;
#199 = ORIENTED_EDGE ( 'NONE', *, *, #322, .T. ) ;
#200 = DATE_TIME_ROLE ( 'classification_date' ) ;
#201 = CALENDAR_DATE ( 2021, 25, 10 ) ;
#202 = APPROVAL ( #67, 'UNSPECIFIED' ) ;
#203 = EDGE_CURVE ( 'NONE', #58, #47, #17, .T. ) ;
#204 = APPROVAL ( #282, 'UNSPECIFIED' ) ;
#205 = VERTEX_POINT ( 'NONE', #242 ) ;
#206 = ORIENTED_EDGE ( 'NONE', *, *, #34, .T. ) ;
#207 = DIRECTION ( 'NONE',  ( 0.000000000000000000, 0.000000000000000000, -1.000000000000000000 ) ) ;
#208 = AXIS2_PLACEMENT_3D ( 'NONE', #144, #127, #218 ) ;
#209 = FACE_OUTER_BOUND ( 'NONE', #317, .T. ) ;
#210 = ORIENTED_EDGE ( 'NONE', *, *, #248, .F. ) ;
#211 = DIRECTION ( 'NONE',  ( 0.000000000000000000, 0.000000000000000000, 1.000000000000000000 ) ) ;
#212 = VERTEX_POINT ( 'NONE', #287 ) ;
#213 = ORIENTED_EDGE ( 'NONE', *, *, #223, .F. ) ;
#214 = AXIS2_PLACEMENT_3D ( 'NONE', #38, #276, #324 ) ;
#215 = ADVANCED_FACE ( 'NONE', ( #22 ), #308, .T. ) ;
#216 = ORIENTED_EDGE ( 'NONE', *, *, #48, .F. ) ;
#217 = APPROVAL_ROLE ( '' ) ;
#218 = DIRECTION ( 'NONE',  ( 1.000000000000000000, 0.000000000000000000, 0.000000000000000000 ) ) ;
#219 = AXIS2_PLACEMENT_3D ( 'NONE', #20, #3, #118 ) ;
#220 = CARTESIAN_POINT ( 'NONE',  ( 10.00000000000000000, 0.000000000000000000, 12.00000000000000000 ) ) ;
#221 = CC_DESIGN_PERSON_AND_ORGANIZATION_ASSIGNMENT ( #290, #254, ( #52 ) ) ;
#222 = DIRECTION ( 'NONE',  ( 0.000000000000000000, 0.000000000000000000, -1.000000000000000000 ) ) ;
#223 = EDGE_CURVE ( 'NONE', #37, #205, #188, .T. ) ;
#224 = EDGE_CURVE ( 'NONE', #186, #325, #273, .T. ) ;
#225 = CIRCLE ( 'NONE', #214, 10.00000000000000000 ) ;
#226 = PRODUCT ( 'bj300-12040', 'bj300-12040', '', ( #21 ) ) ;
#227 = DIRECTION ( 'NONE',  ( 0.000000000000000000, 0.000000000000000000, 1.000000000000000000 ) ) ;
#228 = SHAPE_DEFINITION_REPRESENTATION ( #80, #42 ) ;
#229 = PRODUCT_DEFINITION ( 'UNKNOWN', '', #232, #252 ) ;
#230 = CIRCLE ( 'NONE', #286, 20.00000000000000000 ) ;
#231 = AXIS2_PLACEMENT_3D ( 'NONE', #274, #320, #110 ) ;
#232 = PRODUCT_DEFINITION_FORMATION_WITH_SPECIFIED_SOURCE ( 'ANY', '', #226, .NOT_KNOWN. ) ;
#233 = EDGE_LOOP ( 'NONE', ( #16, #206 ) ) ;
#234 = DIRECTION ( 'NONE',  ( 1.000000000000000000, 0.000000000000000000, 0.000000000000000000 ) ) ;
#235 = CC_DESIGN_PERSON_AND_ORGANIZATION_ASSIGNMENT ( #76, #69, ( #226 ) ) ;
#236 = CYLINDRICAL_SURFACE ( 'NONE', #288, 10.00000000000000000 ) ;
#237 = CIRCLE ( 'NONE', #280, 7.000000000000000000 ) ;
#238 = VERTEX_POINT ( 'NONE', #181 ) ;
#239 = CC_DESIGN_APPROVAL ( #311, ( #52 ) ) ;
#240 = EDGE_LOOP ( 'NONE', ( #63, #41 ) ) ;
#241 = EDGE_LOOP ( 'NONE', ( #39, #60, #135, #111 ) ) ;
#242 = CARTESIAN_POINT ( 'NONE',  ( -7.000000000000000000, 8.572527594031473190E-16, 12.00000000000000000 ) ) ;
#243 = ORIENTED_EDGE ( 'NONE', *, *, #148, .F. ) ;
#244 = DATE_AND_TIME ( #143, #141 ) ;
#245 = CARTESIAN_POINT ( 'NONE',  ( 0.000000000000000000, 0.000000000000000000, 0.000000000000000000 ) ) ;
#246 = DATE_AND_TIME ( #149, #312 ) ;
#247 = DIRECTION ( 'NONE',  ( 1.000000000000000000, 0.000000000000000000, 0.000000000000000000 ) ) ;
#248 = EDGE_CURVE ( 'NONE', #212, #190, #175, .T. ) ;
#249 = CIRCLE ( 'NONE', #109, 10.00000000000000000 ) ;
#250 = ORIENTED_EDGE ( 'NONE', *, *, #93, .T. ) ;
#251 = AXIS2_PLACEMENT_3D ( 'NONE', #89, #211, #84 ) ;
#252 = DESIGN_CONTEXT ( 'detailed design', #131, 'design' ) ;
#253 = ADVANCED_FACE ( 'NONE', ( #209, #314 ), #189, .F. ) ;
#254 = PERSON_AND_ORGANIZATION_ROLE ( 'classification_officer' ) ;
#255 = CIRCLE ( 'NONE', #145, 10.00000000000000000 ) ;
#256 = DIRECTION ( 'NONE',  ( 0.000000000000000000, 0.000000000000000000, 1.000000000000000000 ) ) ;
#257 = COORDINATED_UNIVERSAL_TIME_OFFSET ( 9, 0, .AHEAD. ) ;
#258 = DIRECTION ( 'NONE',  ( 0.000000000000000000, 0.000000000000000000, 1.000000000000000000 ) ) ;
#259 = CIRCLE ( 'NONE', #208, 7.000000000000000000 ) ;
#260 = VECTOR ( 'NONE', #114, 1000.000000000000000 ) ;
#261 = CC_DESIGN_APPROVAL ( #202, ( #229 ) ) ;
#262 = PLANE ( 'NONE',  #44 ) ;
#263 = ADVANCED_FACE ( 'NONE', ( #65 ), #31, .F. ) ;
#264 = EDGE_LOOP ( 'NONE', ( #216, #163, #303, #297 ) ) ;
#265 = CARTESIAN_POINT ( 'NONE',  ( 0.000000000000000000, 0.000000000000000000, 0.000000000000000000 ) ) ;
#266 = DIRECTION ( 'NONE',  ( 1.000000000000000000, 0.000000000000000000, 0.000000000000000000 ) ) ;
#267 = ORIENTED_EDGE ( 'NONE', *, *, #48, .T. ) ;
#268 = EDGE_CURVE ( 'NONE', #238, #116, #159, .T. ) ;
#269 = DIRECTION ( 'NONE',  ( 1.000000000000000000, 0.000000000000000000, 0.000000000000000000 ) ) ;
#270 = DIRECTION ( 'NONE',  ( -1.000000000000000000, 0.000000000000000000, 0.000000000000000000 ) ) ;
#271 = ORIENTED_EDGE ( 'NONE', *, *, #203, .T. ) ;
#272 = ADVANCED_FACE ( 'NONE', ( #162, #321 ), #262, .F. ) ;
#273 = LINE ( 'NONE', #94, #119 ) ;
#274 = CARTESIAN_POINT ( 'NONE',  ( 0.000000000000000000, 0.000000000000000000, 40.00000000000000000 ) ) ;
#275 = ADVANCED_FACE ( 'NONE', ( #85 ), #182, .T. ) ;
#276 = DIRECTION ( 'NONE',  ( 0.000000000000000000, 0.000000000000000000, 1.000000000000000000 ) ) ;
#277 = ORIENTED_EDGE ( 'NONE', *, *, #224, .T. ) ;
#278 = DIRECTION ( 'NONE',  ( 0.000000000000000000, 0.000000000000000000, 1.000000000000000000 ) ) ;
#279 = DIRECTION ( 'NONE',  ( 1.000000000000000000, 0.000000000000000000, 0.000000000000000000 ) ) ;
#280 = AXIS2_PLACEMENT_3D ( 'NONE', #40, #292, #61 ) ;
#281 = LOCAL_TIME ( 8, 51, 20.00000000000000000, #55 ) ;
#282 = APPROVAL_STATUS ( 'not_yet_approved' ) ;
#283 = FACE_BOUND ( 'NONE', #14, .T. ) ;
#284 = PERSON_AND_ORGANIZATION ( #36, #97 ) ;
#285 = CARTESIAN_POINT ( 'NONE',  ( -20.00000000000000000, 2.449293598294706513E-15, 40.00000000000000000 ) ) ;
#286 = AXIS2_PLACEMENT_3D ( 'NONE', #151, #327, #98 ) ;
#287 = CARTESIAN_POINT ( 'NONE',  ( -20.00000000000000000, 2.449293598294706513E-15, 0.000000000000000000 ) ) ;
#288 = AXIS2_PLACEMENT_3D ( 'NONE', #156, #12, #295 ) ;
#289 = APPROVAL_PERSON_ORGANIZATION ( #102, #204, #217 ) ;
#290 = PERSON_AND_ORGANIZATION ( #36, #97 ) ;
#291 = ADVANCED_FACE ( 'NONE', ( #35 ), #236, .F. ) ;
#292 = DIRECTION ( 'NONE',  ( 0.000000000000000000, 0.000000000000000000, 1.000000000000000000 ) ) ;
#293 = ORIENTED_EDGE ( 'NONE', *, *, #136, .T. ) ;
#294 = CC_DESIGN_SECURITY_CLASSIFICATION ( #52, ( #232 ) ) ;
#295 = DIRECTION ( 'NONE',  ( 1.000000000000000000, 0.000000000000000000, 0.000000000000000000 ) ) ;
#296 = CARTESIAN_POINT ( 'NONE',  ( 10.00000000000000000, 0.000000000000000000, 40.00000000000000000 ) ) ;
#297 = ORIENTED_EDGE ( 'NONE', *, *, #136, .F. ) ;
#298 = EDGE_CURVE ( 'NONE', #205, #325, #87, .T. ) ;
#299 = CYLINDRICAL_SURFACE ( 'NONE', #64, 7.000000000000000000 ) ;
#300 = ORIENTED_EDGE ( 'NONE', *, *, #148, .T. ) ;
#301 = VECTOR ( 'NONE', #23, 1000.000000000000000 ) ;
#302 = CARTESIAN_POINT ( 'NONE',  ( 7.000000000000000000, 0.000000000000000000, 0.000000000000000000 ) ) ;
#303 = ORIENTED_EDGE ( 'NONE', *, *, #130, .T. ) ;
#304 = FACE_OUTER_BOUND ( 'NONE', #86, .T. ) ;
#305 = EDGE_CURVE ( 'NONE', #112, #194, #184, .T. ) ;
#306 = DIRECTION ( 'NONE',  ( 0.000000000000000000, 0.000000000000000000, 1.000000000000000000 ) ) ;
#307 = PLANE ( 'NONE',  #79 ) ;
#308 = CYLINDRICAL_SURFACE ( 'NONE', #83, 20.00000000000000000 ) ;
#309 = ADVANCED_FACE ( 'NONE', ( #318 ), #299, .F. ) ;
#310 = CYLINDRICAL_SURFACE ( 'NONE', #27, 10.00000000000000000 ) ;
#311 = APPROVAL ( #316, 'UNSPECIFIED' ) ;
#312 = LOCAL_TIME ( 8, 51, 20.00000000000000000, #46 ) ;
#313 = SECURITY_CLASSIFICATION_LEVEL ( 'unclassified' ) ;
#314 = FACE_BOUND ( 'NONE', #319, .T. ) ;
#315 = EDGE_CURVE ( 'NONE', #112, #238, #225, .T. ) ;
#316 = APPROVAL_STATUS ( 'not_yet_approved' ) ;
#317 = EDGE_LOOP ( 'NONE', ( #243, #210 ) ) ;
#318 = FACE_OUTER_BOUND ( 'NONE', #157, .T. ) ;
#319 = EDGE_LOOP ( 'NONE', ( #66, #13 ) ) ;
#320 = DIRECTION ( 'NONE',  ( 0.000000000000000000, 0.000000000000000000, 1.000000000000000000 ) ) ;
#321 = FACE_OUTER_BOUND ( 'NONE', #233, .T. ) ;
#322 = EDGE_CURVE ( 'NONE', #325, #205, #237, .T. ) ;
#323 = EDGE_LOOP ( 'NONE', ( #300, #267, #115, #328 ) ) ;
#324 = DIRECTION ( 'NONE',  ( 1.000000000000000000, 0.000000000000000000, 0.000000000000000000 ) ) ;
#325 = VERTEX_POINT ( 'NONE', #142 ) ;
#326 = AXIS2_PLACEMENT_3D ( 'NONE', #45, #306, #147 ) ;
#327 = DIRECTION ( 'NONE',  ( 0.000000000000000000, 0.000000000000000000, 1.000000000000000000 ) ) ;
#328 = ORIENTED_EDGE ( 'NONE', *, *, #130, .F. ) ;
#329 = CARTESIAN_POINT ( 'NONE',  ( 7.000000000000000000, 0.000000000000000000, 0.000000000000000000 ) ) ;
ENDSEC;
END-ISO-10303-21;
