ISO-10303-21;
HEADER;
FILE_DESCRIPTION (( 'STEP AP203' ),
    '1' );
FILE_NAME ('bj401-10001.STEP',
    '2021-10-24T23:52:29',
    ( '' ),
    ( '' ),
    'SwSTEP 2.0',
    'SolidWorks 2020',
    '' );
FILE_SCHEMA (( 'CONFIG_CONTROL_DESIGN' ));
ENDSEC;

DATA;
#1 = PERSON ( 'UNSPECIFIED', 'UNSPECIFIED', 'UNSPECIFIED', ('UNSPECIFIED'), ('UNSPECIFIED'), ('UNSPECIFIED') ) ;
#2 = DIRECTION ( 'NONE',  ( 1.000000000000000000, 0.000000000000000000, 0.000000000000000000 ) ) ;
#3 = PERSON_AND_ORGANIZATION_ROLE ( 'design_supplier' ) ;
#4 = VERTEX_POINT ( 'NONE', #139 ) ;
#5 = AXIS2_PLACEMENT_3D ( 'NONE', #130, #260, #100 ) ;
#6 = PRODUCT_DEFINITION_SHAPE ( 'NONE', 'NONE',  #384 ) ;
#7 = CALENDAR_DATE ( 2021, 25, 10 ) ;
#8 = CALENDAR_DATE ( 2021, 25, 10 ) ;
#9 = ORIENTED_EDGE ( 'NONE', *, *, #274, .F. ) ;
#10 = CIRCLE ( 'NONE', #372, 15.00000000000000000 ) ;
#11 = DIRECTION ( 'NONE',  ( 1.000000000000000000, 0.000000000000000000, 0.000000000000000000 ) ) ;
#12 = CARTESIAN_POINT ( 'NONE',  ( -5.500000000000000000, 6.735557395310442023E-16, 4.000000000000000000 ) ) ;
#13 = VERTEX_POINT ( 'NONE', #107 ) ;
#14 = DIRECTION ( 'NONE',  ( 1.000000000000000000, 0.000000000000000000, 0.000000000000000000 ) ) ;
#15 = ORIENTED_EDGE ( 'NONE', *, *, #229, .T. ) ;
#16 = LINE ( 'NONE', #394, #40 ) ;
#17 = DIRECTION ( 'NONE',  ( 0.000000000000000000, 0.000000000000000000, 1.000000000000000000 ) ) ;
#18 = CARTESIAN_POINT ( 'NONE',  ( -9.000000000000000000, 1.102182119232617714E-15, 15.00000000000000000 ) ) ;
#19 = CARTESIAN_POINT ( 'NONE',  ( 10.00000000000000000, 0.000000000000000000, -12.00000000000000000 ) ) ;
#20 = ORIENTED_EDGE ( 'NONE', *, *, #104, .T. ) ;
#21 = VECTOR ( 'NONE', #369, 1000.000000000000000 ) ;
#22 = ORIENTED_EDGE ( 'NONE', *, *, #125, .F. ) ;
#23 = DIRECTION ( 'NONE',  ( 1.000000000000000000, 0.000000000000000000, 0.000000000000000000 ) ) ;
#24 = CARTESIAN_POINT ( 'NONE',  ( 9.000000000000000000, 0.000000000000000000, 4.000000000000000000 ) ) ;
#25 = EDGE_CURVE ( 'NONE', #261, #64, #192, .T. ) ;
#26 = CC_DESIGN_APPROVAL ( #267, ( #384 ) ) ;
#27 = EDGE_CURVE ( 'NONE', #71, #380, #163, .T. ) ;
#28 = ORIENTED_EDGE ( 'NONE', *, *, #241, .T. ) ;
#29 = PERSON_AND_ORGANIZATION ( #1, #193 ) ;
#30 = FACE_OUTER_BOUND ( 'NONE', #70, .T. ) ;
#31 = DATE_AND_TIME ( #7, #409 ) ;
#32 = DIRECTION ( 'NONE',  ( 1.000000000000000000, 0.000000000000000000, 0.000000000000000000 ) ) ;
#33 = AXIS2_PLACEMENT_3D ( 'NONE', #182, #17, #141 ) ;
#34 = COORDINATED_UNIVERSAL_TIME_OFFSET ( 9, 0, .AHEAD. ) ;
#35 = DIRECTION ( 'NONE',  ( 0.000000000000000000, 0.000000000000000000, 1.000000000000000000 ) ) ;
#36 = EDGE_CURVE ( 'NONE', #326, #147, #264, .T. ) ;
#37 = COORDINATED_UNIVERSAL_TIME_OFFSET ( 9, 0, .AHEAD. ) ;
#38 = EDGE_CURVE ( 'NONE', #55, #407, #149, .T. ) ;
#39 = EDGE_LOOP ( 'NONE', ( #43, #354, #142, #120 ) ) ;
#40 = VECTOR ( 'NONE', #80, 1000.000000000000000 ) ;
#41 = EDGE_CURVE ( 'NONE', #64, #380, #308, .T. ) ;
#42 = ORIENTED_EDGE ( 'NONE', *, *, #389, .F. ) ;
#43 = ORIENTED_EDGE ( 'NONE', *, *, #27, .F. ) ;
#44 = CARTESIAN_POINT ( 'NONE',  ( 0.000000000000000000, 0.000000000000000000, 18.00000000000000000 ) ) ;
#45 = DIRECTION ( 'NONE',  ( 1.000000000000000000, 0.000000000000000000, 0.000000000000000000 ) ) ;
#46 = ORIENTED_EDGE ( 'NONE', *, *, #304, .T. ) ;
#47 = PLANE ( 'NONE',  #242 ) ;
#48 = CARTESIAN_POINT ( 'NONE',  ( 0.000000000000000000, 0.000000000000000000, 0.000000000000000000 ) ) ;
#49 = EDGE_LOOP ( 'NONE', ( #79, #28 ) ) ;
#50 = DIRECTION ( 'NONE',  ( 0.000000000000000000, 0.000000000000000000, 1.000000000000000000 ) ) ;
#51 = ORIENTED_EDGE ( 'NONE', *, *, #136, .F. ) ;
#52 = CYLINDRICAL_SURFACE ( 'NONE', #207, 10.00000000000000000 ) ;
#53 = CIRCLE ( 'NONE', #399, 15.00000000000000000 ) ;
#54 = CC_DESIGN_SECURITY_CLASSIFICATION ( #102, ( #325 ) ) ;
#55 = VERTEX_POINT ( 'NONE', #19 ) ;
#56 = CARTESIAN_POINT ( 'NONE',  ( 0.000000000000000000, 0.000000000000000000, 18.00000000000000000 ) ) ;
#57 = APPROVAL ( #386, 'UNSPECIFIED' ) ;
#58 = ORIENTED_EDGE ( 'NONE', *, *, #109, .T. ) ;
#59 = MANIFOLD_SOLID_BREP ( 'Imported1', #214 ) ;
#60 = CARTESIAN_POINT ( 'NONE',  ( -10.00000000000000000, 1.224646799147353256E-15, -12.00000000000000000 ) ) ;
#61 = EDGE_CURVE ( 'NONE', #375, #407, #359, .T. ) ;
#62 = VERTEX_POINT ( 'NONE', #12 ) ;
#63 = CC_DESIGN_PERSON_AND_ORGANIZATION_ASSIGNMENT ( #388, #318, ( #325 ) ) ;
#64 = VERTEX_POINT ( 'NONE', #114 ) ;
#65 = DIRECTION ( 'NONE',  ( 0.000000000000000000, 0.000000000000000000, 1.000000000000000000 ) ) ;
#66 = CARTESIAN_POINT ( 'NONE',  ( -9.000000000000000000, 1.102182119232617714E-15, 4.000000000000000000 ) ) ;
#67 = CIRCLE ( 'NONE', #321, 10.00000000000000000 ) ;
#68 = AXIS2_PLACEMENT_3D ( 'NONE', #209, #332, #170 ) ;
#69 = COORDINATED_UNIVERSAL_TIME_OFFSET ( 9, 0, .AHEAD. ) ;
#70 = EDGE_LOOP ( 'NONE', ( #42, #310 ) ) ;
#71 = VERTEX_POINT ( 'NONE', #78 ) ;
#72 = VECTOR ( 'NONE', #379, 1000.000000000000000 ) ;
#73 = CYLINDRICAL_SURFACE ( 'NONE', #140, 15.00000000000000000 ) ;
#74 = DIRECTION ( 'NONE',  ( 0.000000000000000000, 0.000000000000000000, 1.000000000000000000 ) ) ;
#75 = CIRCLE ( 'NONE', #266, 9.000000000000000000 ) ;
#76 = DIRECTION ( 'NONE',  ( 1.000000000000000000, 0.000000000000000000, 0.000000000000000000 ) ) ;
#77 = LINE ( 'NONE', #206, #101 ) ;
#78 = CARTESIAN_POINT ( 'NONE',  ( -15.00000000000000000, 1.836970198721029589E-15, 0.000000000000000000 ) ) ;
#79 = ORIENTED_EDGE ( 'NONE', *, *, #41, .T. ) ;
#80 = DIRECTION ( 'NONE',  ( 0.000000000000000000, 0.000000000000000000, 1.000000000000000000 ) ) ;
#81 = DIRECTION ( 'NONE',  ( 1.000000000000000000, 0.000000000000000000, 0.000000000000000000 ) ) ;
#82 = APPLICATION_PROTOCOL_DEFINITION ( 'international standard', 'config_control_design', 1994, #293 ) ;
#83 = FACE_OUTER_BOUND ( 'NONE', #338, .T. ) ;
#84 = CC_DESIGN_PERSON_AND_ORGANIZATION_ASSIGNMENT ( #29, #121, ( #164 ) ) ;
#85 = ORIENTED_EDGE ( 'NONE', *, *, #38, .T. ) ;
#86 = CARTESIAN_POINT ( 'NONE',  ( 0.000000000000000000, 0.000000000000000000, 18.00000000000000000 ) ) ;
#87 = DIRECTION ( 'NONE',  ( 0.000000000000000000, 0.000000000000000000, -1.000000000000000000 ) ) ;
#88 = DIRECTION ( 'NONE',  ( 1.000000000000000000, 0.000000000000000000, 0.000000000000000000 ) ) ;
#89 = AXIS2_PLACEMENT_3D ( 'NONE', #339, #297, #403 ) ;
#90 = ADVANCED_FACE ( 'NONE', ( #210 ), #244, .F. ) ;
#91 = CARTESIAN_POINT ( 'NONE',  ( -10.00000000000000000, 1.224646799147353256E-15, 0.000000000000000000 ) ) ;
#92 = DIRECTION ( 'NONE',  ( 1.000000000000000000, 0.000000000000000000, 0.000000000000000000 ) ) ;
#93 = UNCERTAINTY_MEASURE_WITH_UNIT (LENGTH_MEASURE( 1.000000000000000082E-05 ), #349, 'distance_accuracy_value', 'NONE');
#94 = ORIENTED_EDGE ( 'NONE', *, *, #27, .T. ) ;
#95 = DIRECTION ( 'NONE',  ( 0.000000000000000000, 0.000000000000000000, 1.000000000000000000 ) ) ;
#96 = CARTESIAN_POINT ( 'NONE',  ( 0.000000000000000000, 0.000000000000000000, 15.00000000000000000 ) ) ;
#97 = DATE_AND_TIME ( #8, #268 ) ;
#98 = SHAPE_DEFINITION_REPRESENTATION ( #6, #258 ) ;
#99 = EDGE_CURVE ( 'NONE', #215, #55, #67, .T. ) ;
#100 = DIRECTION ( 'NONE',  ( 1.000000000000000000, 0.000000000000000000, 0.000000000000000000 ) ) ;
#101 = VECTOR ( 'NONE', #300, 1000.000000000000000 ) ;
#102 = SECURITY_CLASSIFICATION ( '', '', #259 ) ;
#103 = PERSON_AND_ORGANIZATION ( #1, #193 ) ;
#104 = EDGE_CURVE ( 'NONE', #352, #181, #75, .T. ) ;
#105 = CIRCLE ( 'NONE', #167, 9.000000000000000000 ) ;
#106 = ORIENTED_EDGE ( 'NONE', *, *, #162, .F. ) ;
#107 = CARTESIAN_POINT ( 'NONE',  ( 5.500000000000000000, 0.000000000000000000, 4.000000000000000000 ) ) ;
#108 = EDGE_CURVE ( 'NONE', #62, #13, #333, .T. ) ;
#109 = EDGE_CURVE ( 'NONE', #301, #13, #342, .T. ) ;
#110 = DIRECTION ( 'NONE',  ( 0.000000000000000000, 0.000000000000000000, 1.000000000000000000 ) ) ;
#111 = ORIENTED_EDGE ( 'NONE', *, *, #125, .T. ) ;
#112 = CARTESIAN_POINT ( 'NONE',  ( 10.00000000000000000, 0.000000000000000000, 0.000000000000000000 ) ) ;
#113 =( GEOMETRIC_REPRESENTATION_CONTEXT ( 3 ) GLOBAL_UNCERTAINTY_ASSIGNED_CONTEXT ( ( #93 ) ) GLOBAL_UNIT_ASSIGNED_CONTEXT ( ( #349, #314, #124 ) ) REPRESENTATION_CONTEXT ( 'NONE', 'WORKASPACE' ) );
#114 = CARTESIAN_POINT ( 'NONE',  ( 15.00000000000000000, 0.000000000000000000, 15.00000000000000000 ) ) ;
#115 = PRODUCT_RELATED_PRODUCT_CATEGORY ( 'detail', '', ( #164 ) ) ;
#116 = DIRECTION ( 'NONE',  ( 0.000000000000000000, 0.000000000000000000, 1.000000000000000000 ) ) ;
#117 = ORIENTED_EDGE ( 'NONE', *, *, #283, .F. ) ;
#118 = CARTESIAN_POINT ( 'NONE',  ( 0.000000000000000000, 0.000000000000000000, 0.000000000000000000 ) ) ;
#119 = CARTESIAN_POINT ( 'NONE',  ( 5.500000000000000000, 0.000000000000000000, 18.00000000000000000 ) ) ;
#120 = ORIENTED_EDGE ( 'NONE', *, *, #241, .F. ) ;
#121 = PERSON_AND_ORGANIZATION_ROLE ( 'design_owner' ) ;
#122 = CARTESIAN_POINT ( 'NONE',  ( 0.000000000000000000, 0.000000000000000000, 4.000000000000000000 ) ) ;
#123 = APPROVAL_PERSON_ORGANIZATION ( #166, #158, #233 ) ;
#124 =( NAMED_UNIT ( * ) SI_UNIT ( $, .STERADIAN. ) SOLID_ANGLE_UNIT ( ) );
#125 = EDGE_CURVE ( 'NONE', #407, #375, #392, .T. ) ;
#126 = DIRECTION ( 'NONE',  ( 0.000000000000000000, 0.000000000000000000, 1.000000000000000000 ) ) ;
#127 = EDGE_LOOP ( 'NONE', ( #254, #345, #237, #174 ) ) ;
#128 = PERSON_AND_ORGANIZATION ( #1, #193 ) ;
#129 = FACE_OUTER_BOUND ( 'NONE', #49, .T. ) ;
#130 = CARTESIAN_POINT ( 'NONE',  ( 0.000000000000000000, 0.000000000000000000, -12.00000000000000000 ) ) ;
#131 = AXIS2_PLACEMENT_3D ( 'NONE', #275, #299, #81 ) ;
#132 = ADVANCED_FACE ( 'NONE', ( #145 ), #52, .T. ) ;
#133 = CARTESIAN_POINT ( 'NONE',  ( 15.00000000000000000, 0.000000000000000000, 18.00000000000000000 ) ) ;
#134 = AXIS2_PLACEMENT_3D ( 'NONE', #157, #228, #88 ) ;
#135 = ORIENTED_EDGE ( 'NONE', *, *, #319, .T. ) ;
#136 = EDGE_CURVE ( 'NONE', #4, #301, #217, .T. ) ;
#137 = EDGE_LOOP ( 'NONE', ( #111, #343 ) ) ;
#138 = CARTESIAN_POINT ( 'NONE',  ( 5.500000000000000000, 0.000000000000000000, -12.00000000000000000 ) ) ;
#139 = CARTESIAN_POINT ( 'NONE',  ( -5.500000000000000000, 6.735557395310442023E-16, -12.00000000000000000 ) ) ;
#140 = AXIS2_PLACEMENT_3D ( 'NONE', #44, #211, #368 ) ;
#141 = DIRECTION ( 'NONE',  ( 1.000000000000000000, 0.000000000000000000, 0.000000000000000000 ) ) ;
#142 = ORIENTED_EDGE ( 'NONE', *, *, #25, .T. ) ;
#143 = CARTESIAN_POINT ( 'NONE',  ( 0.000000000000000000, 0.000000000000000000, 4.000000000000000000 ) ) ;
#144 = FACE_BOUND ( 'NONE', #137, .T. ) ;
#145 = FACE_OUTER_BOUND ( 'NONE', #370, .T. ) ;
#146 = ADVANCED_FACE ( 'NONE', ( #269 ), #245, .F. ) ;
#147 = VERTEX_POINT ( 'NONE', #334 ) ;
#148 = APPROVAL_PERSON_ORGANIZATION ( #353, #57, #350 ) ;
#149 = LINE ( 'NONE', #150, #21 ) ;
#150 = CARTESIAN_POINT ( 'NONE',  ( 10.00000000000000000, 0.000000000000000000, 18.00000000000000000 ) ) ;
#151 = MECHANICAL_CONTEXT ( 'NONE', #367, 'mechanical' ) ;
#152 = VECTOR ( 'NONE', #204, 1000.000000000000000 ) ;
#153 = EDGE_LOOP ( 'NONE', ( #331, #178 ) ) ;
#154 = DIRECTION ( 'NONE',  ( 0.000000000000000000, 0.000000000000000000, -1.000000000000000000 ) ) ;
#155 = PLANE ( 'NONE',  #134 ) ;
#156 = ORIENTED_EDGE ( 'NONE', *, *, #389, .T. ) ;
#157 = CARTESIAN_POINT ( 'NONE',  ( 5.500000000000000000, 0.000000000000000000, -12.00000000000000000 ) ) ;
#158 = APPROVAL ( #294, 'UNSPECIFIED' ) ;
#159 = CARTESIAN_POINT ( 'NONE',  ( 15.00000000000000000, 0.000000000000000000, 15.00000000000000000 ) ) ;
#160 = CC_DESIGN_APPROVAL ( #158, ( #102 ) ) ;
#161 = PERSON_AND_ORGANIZATION_ROLE ( 'creator' ) ;
#162 = EDGE_CURVE ( 'NONE', #4, #62, #271, .T. ) ;
#163 = LINE ( 'NONE', #303, #152 ) ;
#164 = PRODUCT ( 'bj401-10001', 'bj401-10001', '', ( #151 ) ) ;
#165 = ADVANCED_FACE ( 'NONE', ( #30, #377 ), #155, .F. ) ;
#166 = PERSON_AND_ORGANIZATION ( #1, #193 ) ;
#167 = AXIS2_PLACEMENT_3D ( 'NONE', #96, #253, #287 ) ;
#168 = LOCAL_TIME ( 8, 52, 29.00000000000000000, #69 ) ;
#169 = APPROVAL_DATE_TIME ( #232, #267 ) ;
#170 = DIRECTION ( 'NONE',  ( 1.000000000000000000, 0.000000000000000000, 0.000000000000000000 ) ) ;
#171 = DIRECTION ( 'NONE',  ( 0.000000000000000000, 0.000000000000000000, 1.000000000000000000 ) ) ;
#172 = VECTOR ( 'NONE', #358, 1000.000000000000000 ) ;
#173 = VECTOR ( 'NONE', #110, 1000.000000000000000 ) ;
#174 = ORIENTED_EDGE ( 'NONE', *, *, #195, .F. ) ;
#175 = AXIS2_PLACEMENT_3D ( 'NONE', #221, #65, #23 ) ;
#176 = CC_DESIGN_PERSON_AND_ORGANIZATION_ASSIGNMENT ( #315, #161, ( #384 ) ) ;
#177 = DIRECTION ( 'NONE',  ( 0.000000000000000000, 0.000000000000000000, 1.000000000000000000 ) ) ;
#178 = ORIENTED_EDGE ( 'NONE', *, *, #108, .F. ) ;
#179 = DIRECTION ( 'NONE',  ( 1.000000000000000000, 0.000000000000000000, 0.000000000000000000 ) ) ;
#180 = ADVANCED_FACE ( 'NONE', ( #256, #307 ), #280, .F. ) ;
#181 = VERTEX_POINT ( 'NONE', #66 ) ;
#182 = CARTESIAN_POINT ( 'NONE',  ( 0.000000000000000000, 0.000000000000000000, -12.00000000000000000 ) ) ;
#183 = DIRECTION ( 'NONE',  ( 0.000000000000000000, 0.000000000000000000, 1.000000000000000000 ) ) ;
#184 = CC_DESIGN_APPROVAL ( #57, ( #325 ) ) ;
#185 = CARTESIAN_POINT ( 'NONE',  ( 0.000000000000000000, 0.000000000000000000, 0.000000000000000000 ) ) ;
#186 = CYLINDRICAL_SURFACE ( 'NONE', #262, 5.500000000000000000 ) ;
#187 = CARTESIAN_POINT ( 'NONE',  ( 0.000000000000000000, 0.000000000000000000, 15.00000000000000000 ) ) ;
#188 = APPLICATION_PROTOCOL_DEFINITION ( 'international standard', 'config_control_design', 1994, #367 ) ;
#189 = CALENDAR_DATE ( 2021, 25, 10 ) ;
#190 = DIRECTION ( 'NONE',  ( 0.000000000000000000, 0.000000000000000000, 1.000000000000000000 ) ) ;
#191 = CC_DESIGN_DATE_AND_TIME_ASSIGNMENT ( #194, #234, ( #384 ) ) ;
#192 = LINE ( 'NONE', #133, #329 ) ;
#193 = ORGANIZATION ( 'UNSPECIFIED', 'UNSPECIFIED', '' ) ;
#194 = DATE_AND_TIME ( #263, #168 ) ;
#195 = EDGE_CURVE ( 'NONE', #352, #147, #222, .T. ) ;
#196 = CALENDAR_DATE ( 2021, 25, 10 ) ;
#197 = EDGE_CURVE ( 'NONE', #181, #352, #281, .T. ) ;
#198 = ORIENTED_EDGE ( 'NONE', *, *, #162, .T. ) ;
#199 = AXIS2_PLACEMENT_3D ( 'NONE', #185, #50, #179 ) ;
#200 = APPROVAL_PERSON_ORGANIZATION ( #128, #267, #278 ) ;
#201 = ORIENTED_EDGE ( 'NONE', *, *, #197, .T. ) ;
#202 = ORIENTED_EDGE ( 'NONE', *, *, #274, .T. ) ;
#203 = CARTESIAN_POINT ( 'NONE',  ( 0.000000000000000000, 0.000000000000000000, 0.000000000000000000 ) ) ;
#204 = DIRECTION ( 'NONE',  ( 0.000000000000000000, 0.000000000000000000, 1.000000000000000000 ) ) ;
#205 = CC_DESIGN_DATE_AND_TIME_ASSIGNMENT ( #97, #257, ( #102 ) ) ;
#206 = CARTESIAN_POINT ( 'NONE',  ( -10.00000000000000000, 1.224646799147353256E-15, 18.00000000000000000 ) ) ;
#207 = AXIS2_PLACEMENT_3D ( 'NONE', #239, #74, #401 ) ;
#208 = ORIENTED_EDGE ( 'NONE', *, *, #136, .T. ) ;
#209 = CARTESIAN_POINT ( 'NONE',  ( 0.000000000000000000, 0.000000000000000000, 4.000000000000000000 ) ) ;
#210 = FACE_OUTER_BOUND ( 'NONE', #396, .T. ) ;
#211 = DIRECTION ( 'NONE',  ( 0.000000000000000000, 0.000000000000000000, 1.000000000000000000 ) ) ;
#212 = DIRECTION ( 'NONE',  ( 1.000000000000000000, 0.000000000000000000, 0.000000000000000000 ) ) ;
#213 = DESIGN_CONTEXT ( 'detailed design', #293, 'design' ) ;
#214 = CLOSED_SHELL ( 'NONE', ( #340, #132, #270, #323, #249, #90, #180, #146, #165, #378, #322, #279 ) ) ;
#215 = VERTEX_POINT ( 'NONE', #60 ) ;
#216 = EDGE_LOOP ( 'NONE', ( #117, #285 ) ) ;
#217 = CIRCLE ( 'NONE', #33, 5.500000000000000000 ) ;
#218 = DIRECTION ( 'NONE',  ( 1.000000000000000000, 0.000000000000000000, 0.000000000000000000 ) ) ;
#219 = EDGE_LOOP ( 'NONE', ( #202, #208 ) ) ;
#220 = DIRECTION ( 'NONE',  ( 0.000000000000000000, 0.000000000000000000, 1.000000000000000000 ) ) ;
#221 = CARTESIAN_POINT ( 'NONE',  ( 0.000000000000000000, 0.000000000000000000, 18.00000000000000000 ) ) ;
#222 = LINE ( 'NONE', #347, #72 ) ;
#223 = ORIENTED_EDGE ( 'NONE', *, *, #38, .F. ) ;
#224 = CARTESIAN_POINT ( 'NONE',  ( -15.00000000000000000, 1.836970198721029589E-15, 15.00000000000000000 ) ) ;
#225 = DIRECTION ( 'NONE',  ( 0.000000000000000000, 0.000000000000000000, 1.000000000000000000 ) ) ;
#226 = EDGE_LOOP ( 'NONE', ( #335, #94, #365, #328 ) ) ;
#227 = CARTESIAN_POINT ( 'NONE',  ( 10.00000000000000000, 0.000000000000000000, 0.000000000000000000 ) ) ;
#228 = DIRECTION ( 'NONE',  ( 0.000000000000000000, 0.000000000000000000, 1.000000000000000000 ) ) ;
#229 = EDGE_CURVE ( 'NONE', #147, #326, #105, .T. ) ;
#230 = CIRCLE ( 'NONE', #5, 5.500000000000000000 ) ;
#231 = AXIS2_PLACEMENT_3D ( 'NONE', #86, #95, #381 ) ;
#232 = DATE_AND_TIME ( #189, #348 ) ;
#233 = APPROVAL_ROLE ( '' ) ;
#234 = DATE_TIME_ROLE ( 'creation_date' ) ;
#235 = AXIS2_PLACEMENT_3D ( 'NONE', #395, #360, #76 ) ;
#236 = LOCAL_TIME ( 8, 52, 29.00000000000000000, #37 ) ;
#237 = ORIENTED_EDGE ( 'NONE', *, *, #36, .T. ) ;
#238 = DIRECTION ( 'NONE',  ( 1.000000000000000000, 0.000000000000000000, 0.000000000000000000 ) ) ;
#239 = CARTESIAN_POINT ( 'NONE',  ( 0.000000000000000000, 0.000000000000000000, 18.00000000000000000 ) ) ;
#240 = EDGE_LOOP ( 'NONE', ( #247, #341 ) ) ;
#241 = EDGE_CURVE ( 'NONE', #380, #64, #363, .T. ) ;
#242 = AXIS2_PLACEMENT_3D ( 'NONE', #112, #183, #238 ) ;
#243 = EDGE_CURVE ( 'NONE', #71, #261, #53, .T. ) ;
#244 = CYLINDRICAL_SURFACE ( 'NONE', #89, 9.000000000000000000 ) ;
#245 = CYLINDRICAL_SURFACE ( 'NONE', #235, 5.500000000000000000 ) ;
#246 = AXIS2_PLACEMENT_3D ( 'NONE', #48, #171, #276 ) ;
#247 = ORIENTED_EDGE ( 'NONE', *, *, #229, .F. ) ;
#248 = DIRECTION ( 'NONE',  ( -1.000000000000000000, 0.000000000000000000, 0.000000000000000000 ) ) ;
#249 = ADVANCED_FACE ( 'NONE', ( #408, #129 ), #382, .F. ) ;
#250 = CIRCLE ( 'NONE', #387, 10.00000000000000000 ) ;
#251 = APPROVAL_STATUS ( 'not_yet_approved' ) ;
#252 = FACE_OUTER_BOUND ( 'NONE', #226, .T. ) ;
#253 = DIRECTION ( 'NONE',  ( 0.000000000000000000, 0.000000000000000000, 1.000000000000000000 ) ) ;
#254 = ORIENTED_EDGE ( 'NONE', *, *, #197, .F. ) ;
#255 = CYLINDRICAL_SURFACE ( 'NONE', #175, 9.000000000000000000 ) ;
#256 = FACE_BOUND ( 'NONE', #153, .T. ) ;
#257 = DATE_TIME_ROLE ( 'classification_date' ) ;
#258 = ADVANCED_BREP_SHAPE_REPRESENTATION ( 'bj401-10001', ( #59, #351 ), #113 ) ;
#259 = SECURITY_CLASSIFICATION_LEVEL ( 'unclassified' ) ;
#260 = DIRECTION ( 'NONE',  ( 0.000000000000000000, 0.000000000000000000, 1.000000000000000000 ) ) ;
#261 = VERTEX_POINT ( 'NONE', #371 ) ;
#262 = AXIS2_PLACEMENT_3D ( 'NONE', #56, #220, #2 ) ;
#263 = CALENDAR_DATE ( 2021, 25, 10 ) ;
#264 = CIRCLE ( 'NONE', #272, 9.000000000000000000 ) ;
#265 = EDGE_LOOP ( 'NONE', ( #20, #201 ) ) ;
#266 = AXIS2_PLACEMENT_3D ( 'NONE', #337, #366, #212 ) ;
#267 = APPROVAL ( #251, 'UNSPECIFIED' ) ;
#268 = LOCAL_TIME ( 8, 52, 29.00000000000000000, #390 ) ;
#269 = FACE_OUTER_BOUND ( 'NONE', #313, .T. ) ;
#270 = ADVANCED_FACE ( 'NONE', ( #83 ), #186, .F. ) ;
#271 = LINE ( 'NONE', #397, #173 ) ;
#272 = AXIS2_PLACEMENT_3D ( 'NONE', #306, #330, #45 ) ;
#273 = CIRCLE ( 'NONE', #68, 5.500000000000000000 ) ;
#274 = EDGE_CURVE ( 'NONE', #301, #4, #230, .T. ) ;
#275 = CARTESIAN_POINT ( 'NONE',  ( 0.000000000000000000, 0.000000000000000000, 15.00000000000000000 ) ) ;
#276 = DIRECTION ( 'NONE',  ( 1.000000000000000000, 0.000000000000000000, 0.000000000000000000 ) ) ;
#277 = ORIENTED_EDGE ( 'NONE', *, *, #304, .F. ) ;
#278 = APPROVAL_ROLE ( '' ) ;
#279 = ADVANCED_FACE ( 'NONE', ( #291 ), #73, .T. ) ;
#280 = PLANE ( 'NONE',  #405 ) ;
#281 = CIRCLE ( 'NONE', #324, 9.000000000000000000 ) ;
#282 = CARTESIAN_POINT ( 'NONE',  ( 0.000000000000000000, 0.000000000000000000, 18.00000000000000000 ) ) ;
#283 = EDGE_CURVE ( 'NONE', #261, #71, #10, .T. ) ;
#284 = FACE_OUTER_BOUND ( 'NONE', #290, .T. ) ;
#285 = ORIENTED_EDGE ( 'NONE', *, *, #243, .F. ) ;
#286 = CYLINDRICAL_SURFACE ( 'NONE', #231, 10.00000000000000000 ) ;
#287 = DIRECTION ( 'NONE',  ( 1.000000000000000000, 0.000000000000000000, 0.000000000000000000 ) ) ;
#288 = AXIS2_PLACEMENT_3D ( 'NONE', #159, #87, #248 ) ;
#289 = PERSON_AND_ORGANIZATION_ROLE ( 'classification_officer' ) ;
#290 = EDGE_LOOP ( 'NONE', ( #277, #361, #85, #400 ) ) ;
#291 = FACE_OUTER_BOUND ( 'NONE', #39, .T. ) ;
#292 = EDGE_CURVE ( 'NONE', #181, #326, #16, .T. ) ;
#293 = APPLICATION_CONTEXT ( 'configuration controlled 3d designs of mechanical parts and assemblies' ) ;
#294 = APPROVAL_STATUS ( 'not_yet_approved' ) ;
#295 = PERSON_AND_ORGANIZATION ( #1, #193 ) ;
#296 = CC_DESIGN_PERSON_AND_ORGANIZATION_ASSIGNMENT ( #103, #289, ( #102 ) ) ;
#297 = DIRECTION ( 'NONE',  ( 0.000000000000000000, 0.000000000000000000, 1.000000000000000000 ) ) ;
#298 = ORIENTED_EDGE ( 'NONE', *, *, #104, .F. ) ;
#299 = DIRECTION ( 'NONE',  ( 0.000000000000000000, 0.000000000000000000, 1.000000000000000000 ) ) ;
#300 = DIRECTION ( 'NONE',  ( 0.000000000000000000, 0.000000000000000000, 1.000000000000000000 ) ) ;
#301 = VERTEX_POINT ( 'NONE', #138 ) ;
#302 = DIRECTION ( 'NONE',  ( 0.000000000000000000, 0.000000000000000000, 1.000000000000000000 ) ) ;
#303 = CARTESIAN_POINT ( 'NONE',  ( -15.00000000000000000, 1.836970198721029589E-15, 18.00000000000000000 ) ) ;
#304 = EDGE_CURVE ( 'NONE', #215, #375, #77, .T. ) ;
#305 = CYLINDRICAL_SURFACE ( 'NONE', #393, 15.00000000000000000 ) ;
#306 = CARTESIAN_POINT ( 'NONE',  ( 0.000000000000000000, 0.000000000000000000, 15.00000000000000000 ) ) ;
#307 = FACE_OUTER_BOUND ( 'NONE', #265, .T. ) ;
#308 = CIRCLE ( 'NONE', #131, 15.00000000000000000 ) ;
#309 = AXIS2_PLACEMENT_3D ( 'NONE', #143, #116, #14 ) ;
#310 = ORIENTED_EDGE ( 'NONE', *, *, #99, .F. ) ;
#311 = DIRECTION ( 'NONE',  ( 0.000000000000000000, 0.000000000000000000, 1.000000000000000000 ) ) ;
#312 = CARTESIAN_POINT ( 'NONE',  ( 0.000000000000000000, 0.000000000000000000, 0.000000000000000000 ) ) ;
#313 = EDGE_LOOP ( 'NONE', ( #106, #9, #58, #135 ) ) ;
#314 =( NAMED_UNIT ( * ) PLANE_ANGLE_UNIT ( ) SI_UNIT ( $, .RADIAN. ) );
#315 = PERSON_AND_ORGANIZATION ( #1, #193 ) ;
#316 = DIRECTION ( 'NONE',  ( 0.000000000000000000, 0.000000000000000000, 1.000000000000000000 ) ) ;
#317 = AXIS2_PLACEMENT_3D ( 'NONE', #187, #316, #92 ) ;
#318 = PERSON_AND_ORGANIZATION_ROLE ( 'creator' ) ;
#319 = EDGE_CURVE ( 'NONE', #13, #62, #273, .T. ) ;
#320 = DATE_AND_TIME ( #196, #236 ) ;
#321 = AXIS2_PLACEMENT_3D ( 'NONE', #364, #177, #11 ) ;
#322 = ADVANCED_FACE ( 'NONE', ( #336, #144 ), #47, .F. ) ;
#323 = ADVANCED_FACE ( 'NONE', ( #357 ), #255, .F. ) ;
#324 = AXIS2_PLACEMENT_3D ( 'NONE', #122, #190, #374 ) ;
#325 = PRODUCT_DEFINITION_FORMATION_WITH_SPECIFIED_SOURCE ( 'ANY', '', #164, .NOT_KNOWN. ) ;
#326 = VERTEX_POINT ( 'NONE', #18 ) ;
#327 = CC_DESIGN_PERSON_AND_ORGANIZATION_ASSIGNMENT ( #295, #3, ( #325 ) ) ;
#328 = ORIENTED_EDGE ( 'NONE', *, *, #25, .F. ) ;
#329 = VECTOR ( 'NONE', #35, 1000.000000000000000 ) ;
#330 = DIRECTION ( 'NONE',  ( 0.000000000000000000, 0.000000000000000000, 1.000000000000000000 ) ) ;
#331 = ORIENTED_EDGE ( 'NONE', *, *, #319, .F. ) ;
#332 = DIRECTION ( 'NONE',  ( 0.000000000000000000, 0.000000000000000000, 1.000000000000000000 ) ) ;
#333 = CIRCLE ( 'NONE', #309, 5.500000000000000000 ) ;
#334 = CARTESIAN_POINT ( 'NONE',  ( 9.000000000000000000, 0.000000000000000000, 15.00000000000000000 ) ) ;
#335 = ORIENTED_EDGE ( 'NONE', *, *, #283, .T. ) ;
#336 = FACE_OUTER_BOUND ( 'NONE', #216, .T. ) ;
#337 = CARTESIAN_POINT ( 'NONE',  ( 0.000000000000000000, 0.000000000000000000, 4.000000000000000000 ) ) ;
#338 = EDGE_LOOP ( 'NONE', ( #51, #198, #402, #398 ) ) ;
#339 = CARTESIAN_POINT ( 'NONE',  ( 0.000000000000000000, 0.000000000000000000, 18.00000000000000000 ) ) ;
#340 = ADVANCED_FACE ( 'NONE', ( #252 ), #305, .T. ) ;
#341 = ORIENTED_EDGE ( 'NONE', *, *, #36, .F. ) ;
#342 = LINE ( 'NONE', #119, #172 ) ;
#343 = ORIENTED_EDGE ( 'NONE', *, *, #61, .T. ) ;
#344 = DIRECTION ( 'NONE',  ( 1.000000000000000000, 0.000000000000000000, 0.000000000000000000 ) ) ;
#345 = ORIENTED_EDGE ( 'NONE', *, *, #292, .T. ) ;
#346 = CARTESIAN_POINT ( 'NONE',  ( 0.000000000000000000, 0.000000000000000000, -12.00000000000000000 ) ) ;
#347 = CARTESIAN_POINT ( 'NONE',  ( 9.000000000000000000, 0.000000000000000000, 18.00000000000000000 ) ) ;
#348 = LOCAL_TIME ( 8, 52, 29.00000000000000000, #34 ) ;
#349 =( LENGTH_UNIT ( ) NAMED_UNIT ( * ) SI_UNIT ( .MILLI., .METRE. ) );
#350 = APPROVAL_ROLE ( '' ) ;
#351 = AXIS2_PLACEMENT_3D ( 'NONE', #118, #126, #376 ) ;
#352 = VERTEX_POINT ( 'NONE', #373 ) ;
#353 = PERSON_AND_ORGANIZATION ( #1, #193 ) ;
#354 = ORIENTED_EDGE ( 'NONE', *, *, #243, .T. ) ;
#355 = COORDINATED_UNIVERSAL_TIME_OFFSET ( 9, 0, .AHEAD. ) ;
#356 = ORIENTED_EDGE ( 'NONE', *, *, #292, .F. ) ;
#357 = FACE_OUTER_BOUND ( 'NONE', #127, .T. ) ;
#358 = DIRECTION ( 'NONE',  ( 0.000000000000000000, 0.000000000000000000, 1.000000000000000000 ) ) ;
#359 = CIRCLE ( 'NONE', #246, 10.00000000000000000 ) ;
#360 = DIRECTION ( 'NONE',  ( 0.000000000000000000, 0.000000000000000000, 1.000000000000000000 ) ) ;
#361 = ORIENTED_EDGE ( 'NONE', *, *, #99, .T. ) ;
#362 = DIRECTION ( 'NONE',  ( 1.000000000000000000, 0.000000000000000000, 0.000000000000000000 ) ) ;
#363 = CIRCLE ( 'NONE', #317, 15.00000000000000000 ) ;
#364 = CARTESIAN_POINT ( 'NONE',  ( 0.000000000000000000, 0.000000000000000000, -12.00000000000000000 ) ) ;
#365 = ORIENTED_EDGE ( 'NONE', *, *, #41, .F. ) ;
#366 = DIRECTION ( 'NONE',  ( 0.000000000000000000, 0.000000000000000000, 1.000000000000000000 ) ) ;
#367 = APPLICATION_CONTEXT ( 'configuration controlled 3d designs of mechanical parts and assemblies' ) ;
#368 = DIRECTION ( 'NONE',  ( 1.000000000000000000, 0.000000000000000000, 0.000000000000000000 ) ) ;
#369 = DIRECTION ( 'NONE',  ( 0.000000000000000000, 0.000000000000000000, 1.000000000000000000 ) ) ;
#370 = EDGE_LOOP ( 'NONE', ( #156, #46, #22, #223 ) ) ;
#371 = CARTESIAN_POINT ( 'NONE',  ( 15.00000000000000000, 0.000000000000000000, 0.000000000000000000 ) ) ;
#372 = AXIS2_PLACEMENT_3D ( 'NONE', #203, #302, #362 ) ;
#373 = CARTESIAN_POINT ( 'NONE',  ( 9.000000000000000000, 0.000000000000000000, 4.000000000000000000 ) ) ;
#374 = DIRECTION ( 'NONE',  ( 1.000000000000000000, 0.000000000000000000, 0.000000000000000000 ) ) ;
#375 = VERTEX_POINT ( 'NONE', #91 ) ;
#376 = DIRECTION ( 'NONE',  ( 1.000000000000000000, 0.000000000000000000, 0.000000000000000000 ) ) ;
#377 = FACE_BOUND ( 'NONE', #219, .T. ) ;
#378 = ADVANCED_FACE ( 'NONE', ( #284 ), #286, .T. ) ;
#379 = DIRECTION ( 'NONE',  ( 0.000000000000000000, 0.000000000000000000, 1.000000000000000000 ) ) ;
#380 = VERTEX_POINT ( 'NONE', #224 ) ;
#381 = DIRECTION ( 'NONE',  ( 1.000000000000000000, 0.000000000000000000, 0.000000000000000000 ) ) ;
#382 = PLANE ( 'NONE',  #288 ) ;
#383 = APPROVAL_DATE_TIME ( #320, #57 ) ;
#384 = PRODUCT_DEFINITION ( 'UNKNOWN', '', #325, #213 ) ;
#385 = APPROVAL_DATE_TIME ( #31, #158 ) ;
#386 = APPROVAL_STATUS ( 'not_yet_approved' ) ;
#387 = AXIS2_PLACEMENT_3D ( 'NONE', #346, #311, #344 ) ;
#388 = PERSON_AND_ORGANIZATION ( #1, #193 ) ;
#389 = EDGE_CURVE ( 'NONE', #55, #215, #250, .T. ) ;
#390 = COORDINATED_UNIVERSAL_TIME_OFFSET ( 9, 0, .AHEAD. ) ;
#391 = ORIENTED_EDGE ( 'NONE', *, *, #195, .T. ) ;
#392 = CIRCLE ( 'NONE', #199, 10.00000000000000000 ) ;
#393 = AXIS2_PLACEMENT_3D ( 'NONE', #282, #404, #218 ) ;
#394 = CARTESIAN_POINT ( 'NONE',  ( -9.000000000000000000, 1.102182119232617714E-15, 18.00000000000000000 ) ) ;
#395 = CARTESIAN_POINT ( 'NONE',  ( 0.000000000000000000, 0.000000000000000000, 18.00000000000000000 ) ) ;
#396 = EDGE_LOOP ( 'NONE', ( #356, #298, #391, #15 ) ) ;
#397 = CARTESIAN_POINT ( 'NONE',  ( -5.500000000000000000, 6.735557395310442023E-16, 18.00000000000000000 ) ) ;
#398 = ORIENTED_EDGE ( 'NONE', *, *, #109, .F. ) ;
#399 = AXIS2_PLACEMENT_3D ( 'NONE', #312, #225, #32 ) ;
#400 = ORIENTED_EDGE ( 'NONE', *, *, #61, .F. ) ;
#401 = DIRECTION ( 'NONE',  ( 1.000000000000000000, 0.000000000000000000, 0.000000000000000000 ) ) ;
#402 = ORIENTED_EDGE ( 'NONE', *, *, #108, .T. ) ;
#403 = DIRECTION ( 'NONE',  ( 1.000000000000000000, 0.000000000000000000, 0.000000000000000000 ) ) ;
#404 = DIRECTION ( 'NONE',  ( 0.000000000000000000, 0.000000000000000000, 1.000000000000000000 ) ) ;
#405 = AXIS2_PLACEMENT_3D ( 'NONE', #24, #154, #406 ) ;
#406 = DIRECTION ( 'NONE',  ( -1.000000000000000000, 0.000000000000000000, 0.000000000000000000 ) ) ;
#407 = VERTEX_POINT ( 'NONE', #227 ) ;
#408 = FACE_BOUND ( 'NONE', #240, .T. ) ;
#409 = LOCAL_TIME ( 8, 52, 29.00000000000000000, #355 ) ;
ENDSEC;
END-ISO-10303-21;
