ISO-10303-21;
HEADER;
FILE_DESCRIPTION (( 'STEP AP203' ),
    '1' );
FILE_NAME ('bj720-20001.STEP',
    '2021-10-24T23:59:22',
    ( '' ),
    ( '' ),
    'SwSTEP 2.0',
    'SolidWorks 2020',
    '' );
FILE_SCHEMA (( 'CONFIG_CONTROL_DESIGN' ));
ENDSEC;

DATA;
#1 = ORIENTED_EDGE ( 'NONE', *, *, #177, .T. ) ;
#2 = CARTESIAN_POINT ( 'NONE',  ( 10.00000000000000000, 1.224646799147353256E-15, 42.00000000000000000 ) ) ;
#3 = AXIS2_PLACEMENT_3D ( 'NONE', #21, #137, #110 ) ;
#4 = LOCAL_TIME ( 8, 59, 22.00000000000000000, #329 ) ;
#5 = CARTESIAN_POINT ( 'NONE',  ( 0.000000000000000000, 0.000000000000000000, 42.00000000000000000 ) ) ;
#6 = EDGE_LOOP ( 'NONE', ( #129, #78 ) ) ;
#7 = APPROVAL_ROLE ( '' ) ;
#8 = DIRECTION ( 'NONE',  ( 0.000000000000000000, 0.000000000000000000, 1.000000000000000000 ) ) ;
#9 = AXIS2_PLACEMENT_3D ( 'NONE', #322, #134, #104 ) ;
#10 = EDGE_LOOP ( 'NONE', ( #156, #122 ) ) ;
#11 = ORIENTED_EDGE ( 'NONE', *, *, #164, .F. ) ;
#12 = MANIFOLD_SOLID_BREP ( 'Imported1', #69 ) ;
#13 = VECTOR ( 'NONE', #347, 1000.000000000000000 ) ;
#14 = APPROVAL ( #46, 'UNSPECIFIED' ) ;
#15 = VERTEX_POINT ( 'NONE', #222 ) ;
#16 = APPROVAL_ROLE ( '' ) ;
#17 = ORIENTED_EDGE ( 'NONE', *, *, #233, .T. ) ;
#18 = LINE ( 'NONE', #296, #13 ) ;
#19 = CIRCLE ( 'NONE', #29, 2.500000000000000000 ) ;
#20 = DIRECTION ( 'NONE',  ( 0.000000000000000000, 0.000000000000000000, 1.000000000000000000 ) ) ;
#21 = CARTESIAN_POINT ( 'NONE',  ( 7.113248654051849584, 0.000000000000000000, 47.00000000000000000 ) ) ;
#22 = SECURITY_CLASSIFICATION ( '', '', #304 ) ;
#23 = APPLICATION_CONTEXT ( 'configuration controlled 3d designs of mechanical parts and assemblies' ) ;
#24 = DIRECTION ( 'NONE',  ( 0.000000000000000000, 0.000000000000000000, 1.000000000000000000 ) ) ;
#25 = DIRECTION ( 'NONE',  ( 0.000000000000000000, 0.000000000000000000, 1.000000000000000000 ) ) ;
#26 = APPLICATION_PROTOCOL_DEFINITION ( 'international standard', 'config_control_design', 1994, #23 ) ;
#27 = EDGE_CURVE ( 'NONE', #259, #71, #326, .T. ) ;
#28 = ORIENTED_EDGE ( 'NONE', *, *, #82, .T. ) ;
#29 = AXIS2_PLACEMENT_3D ( 'NONE', #325, #203, #94 ) ;
#30 = APPROVAL_DATE_TIME ( #144, #14 ) ;
#31 = DIRECTION ( 'NONE',  ( -0.5000000000000003331, 6.123233995736769734E-17, 0.8660254037844383745 ) ) ;
#32 = SHAPE_DEFINITION_REPRESENTATION ( #189, #208 ) ;
#33 = CIRCLE ( 'NONE', #308, 7.113248654051849584 ) ;
#34 = DIRECTION ( 'NONE',  ( 1.000000000000000000, 0.000000000000000000, 0.000000000000000000 ) ) ;
#35 = DIRECTION ( 'NONE',  ( 1.000000000000000000, 0.000000000000000000, 0.000000000000000000 ) ) ;
#36 = PERSON_AND_ORGANIZATION ( #131, #128 ) ;
#37 = CARTESIAN_POINT ( 'NONE',  ( 0.000000000000000000, 0.000000000000000000, 50.00000000000000000 ) ) ;
#38 = AXIS2_PLACEMENT_3D ( 'NONE', #113, #84, #316 ) ;
#39 = CC_DESIGN_PERSON_AND_ORGANIZATION_ASSIGNMENT ( #260, #199, ( #96 ) ) ;
#40 = APPROVAL_PERSON_ORGANIZATION ( #287, #165, #16 ) ;
#41 = ORIENTED_EDGE ( 'NONE', *, *, #77, .T. ) ;
#42 = ORIENTED_EDGE ( 'NONE', *, *, #239, .F. ) ;
#43 = DIRECTION ( 'NONE',  ( 1.000000000000000000, 0.000000000000000000, 0.000000000000000000 ) ) ;
#44 = ORIENTED_EDGE ( 'NONE', *, *, #201, .F. ) ;
#45 = CIRCLE ( 'NONE', #151, 8.845299461620751202 ) ;
#46 = APPROVAL_STATUS ( 'not_yet_approved' ) ;
#47 = CC_DESIGN_PERSON_AND_ORGANIZATION_ASSIGNMENT ( #85, #223, ( #96 ) ) ;
#48 = FACE_OUTER_BOUND ( 'NONE', #123, .T. ) ;
#49 = PERSON_AND_ORGANIZATION_ROLE ( 'design_owner' ) ;
#50 = VERTEX_POINT ( 'NONE', #211 ) ;
#51 = PRODUCT ( 'bj720-20001', 'bj720-20001', '', ( #291 ) ) ;
#52 = DATE_AND_TIME ( #354, #65 ) ;
#53 = CONICAL_SURFACE ( 'NONE', #100, 10.00000000000000000, 0.5235987755982992597 ) ;
#54 = ORIENTED_EDGE ( 'NONE', *, *, #221, .T. ) ;
#55 = CALENDAR_DATE ( 2021, 25, 10 ) ;
#56 = CIRCLE ( 'NONE', #350, 2.500000000000000000 ) ;
#57 = VERTEX_POINT ( 'NONE', #72 ) ;
#58 = EDGE_CURVE ( 'NONE', #50, #259, #109, .T. ) ;
#59 = EDGE_CURVE ( 'NONE', #50, #266, #183, .T. ) ;
#60 = FACE_OUTER_BOUND ( 'NONE', #314, .T. ) ;
#61 = ORIENTED_EDGE ( 'NONE', *, *, #233, .F. ) ;
#62 = DATE_AND_TIME ( #310, #142 ) ;
#63 = DESIGN_CONTEXT ( 'detailed design', #23, 'design' ) ;
#64 = VECTOR ( 'NONE', #70, 1000.000000000000114 ) ;
#65 = LOCAL_TIME ( 8, 59, 22.00000000000000000, #298 ) ;
#66 = ORIENTED_EDGE ( 'NONE', *, *, #182, .T. ) ;
#67 = DIRECTION ( 'NONE',  ( 0.000000000000000000, 0.000000000000000000, 1.000000000000000000 ) ) ;
#68 = EDGE_LOOP ( 'NONE', ( #191, #17, #41, #303 ) ) ;
#69 = CLOSED_SHELL ( 'NONE', ( #328, #289, #335, #74, #99, #282, #302, #317, #331, #315, #157 ) ) ;
#70 = DIRECTION ( 'NONE',  ( -0.5000000000000003331, 0.000000000000000000, -0.8660254037844383745 ) ) ;
#71 = VERTEX_POINT ( 'NONE', #337 ) ;
#72 = CARTESIAN_POINT ( 'NONE',  ( -7.113248654051849584, 0.000000000000000000, 47.00000000000000000 ) ) ;
#73 = CYLINDRICAL_SURFACE ( 'NONE', #155, 2.500000000000000000 ) ;
#74 = ADVANCED_FACE ( 'NONE', ( #60 ), #163, .T. ) ;
#75 = CARTESIAN_POINT ( 'NONE',  ( 0.000000000000000000, 0.000000000000000000, 37.00000000000000000 ) ) ;
#76 = DIRECTION ( 'NONE',  ( 1.000000000000000000, 0.000000000000000000, 0.000000000000000000 ) ) ;
#77 = EDGE_CURVE ( 'NONE', #126, #170, #344, .T. ) ;
#78 = ORIENTED_EDGE ( 'NONE', *, *, #221, .F. ) ;
#79 = ORIENTED_EDGE ( 'NONE', *, *, #190, .T. ) ;
#80 = PERSON_AND_ORGANIZATION_ROLE ( 'classification_officer' ) ;
#81 = AXIS2_PLACEMENT_3D ( 'NONE', #86, #305, #35 ) ;
#82 = EDGE_CURVE ( 'NONE', #266, #71, #336, .T. ) ;
#83 = DIRECTION ( 'NONE',  ( 0.000000000000000000, 0.000000000000000000, 1.000000000000000000 ) ) ;
#84 = DIRECTION ( 'NONE',  ( 0.000000000000000000, 0.000000000000000000, 1.000000000000000000 ) ) ;
#85 = PERSON_AND_ORGANIZATION ( #131, #128 ) ;
#86 = CARTESIAN_POINT ( 'NONE',  ( 0.000000000000000000, 0.000000000000000000, 42.00000000000000000 ) ) ;
#87 = ORIENTED_EDGE ( 'NONE', *, *, #59, .F. ) ;
#88 = DIRECTION ( 'NONE',  ( 0.000000000000000000, 0.000000000000000000, 1.000000000000000000 ) ) ;
#89 = ORIENTED_EDGE ( 'NONE', *, *, #177, .F. ) ;
#90 = AXIS2_PLACEMENT_3D ( 'NONE', #216, #271, #145 ) ;
#91 = APPROVAL_PERSON_ORGANIZATION ( #219, #14, #351 ) ;
#92 = UNCERTAINTY_MEASURE_WITH_UNIT (LENGTH_MEASURE( 1.000000000000000082E-05 ), #253, 'distance_accuracy_value', 'NONE');
#93 = CARTESIAN_POINT ( 'NONE',  ( -2.500000000000000000, 3.061616997868383141E-16, 47.00000000000000000 ) ) ;
#94 = DIRECTION ( 'NONE',  ( 1.000000000000000000, 0.000000000000000000, 0.000000000000000000 ) ) ;
#95 = CIRCLE ( 'NONE', #81, 10.00000000000000000 ) ;
#96 = PRODUCT_DEFINITION_FORMATION_WITH_SPECIFIED_SOURCE ( 'ANY', '', #51, .NOT_KNOWN. ) ;
#97 = ORIENTED_EDGE ( 'NONE', *, *, #59, .T. ) ;
#98 = DIRECTION ( 'NONE',  ( 0.000000000000000000, 0.000000000000000000, 1.000000000000000000 ) ) ;
#99 = ADVANCED_FACE ( 'NONE', ( #101 ), #220, .F. ) ;
#100 = AXIS2_PLACEMENT_3D ( 'NONE', #127, #162, #188 ) ;
#101 = FACE_OUTER_BOUND ( 'NONE', #6, .T. ) ;
#102 = LINE ( 'NONE', #154, #257 ) ;
#103 = CARTESIAN_POINT ( 'NONE',  ( 0.000000000000000000, 0.000000000000000000, 2.000000000000000000 ) ) ;
#104 = DIRECTION ( 'NONE',  ( 1.000000000000000000, 0.000000000000000000, 0.000000000000000000 ) ) ;
#105 = PERSON_AND_ORGANIZATION ( #131, #128 ) ;
#106 = CARTESIAN_POINT ( 'NONE',  ( 0.000000000000000000, 0.000000000000000000, 0.000000000000000000 ) ) ;
#107 = DIRECTION ( 'NONE',  ( 1.000000000000000000, 0.000000000000000000, 0.000000000000000000 ) ) ;
#108 = CARTESIAN_POINT ( 'NONE',  ( 0.000000000000000000, 0.000000000000000000, 0.000000000000000000 ) ) ;
#109 = CIRCLE ( 'NONE', #38, 8.845299461620751202 ) ;
#110 = DIRECTION ( 'NONE',  ( -1.000000000000000000, 0.000000000000000000, 0.000000000000000000 ) ) ;
#111 = FACE_BOUND ( 'NONE', #10, .T. ) ;
#112 = DATE_TIME_ROLE ( 'creation_date' ) ;
#113 = CARTESIAN_POINT ( 'NONE',  ( 0.000000000000000000, 0.000000000000000000, 0.000000000000000000 ) ) ;
#114 = VECTOR ( 'NONE', #20, 1000.000000000000000 ) ;
#115 = CIRCLE ( 'NONE', #90, 2.500000000000000000 ) ;
#116 = CC_DESIGN_PERSON_AND_ORGANIZATION_ASSIGNMENT ( #105, #49, ( #51 ) ) ;
#117 = AXIS2_PLACEMENT_3D ( 'NONE', #108, #24, #238 ) ;
#118 = CARTESIAN_POINT ( 'NONE',  ( -10.00000000000000000, 1.224646799147353256E-15, 42.00000000000000000 ) ) ;
#119 = DIRECTION ( 'NONE',  ( 1.000000000000000000, 0.000000000000000000, 0.000000000000000000 ) ) ;
#120 = ORIENTED_EDGE ( 'NONE', *, *, #258, .F. ) ;
#121 = ORIENTED_EDGE ( 'NONE', *, *, #258, .T. ) ;
#122 = ORIENTED_EDGE ( 'NONE', *, *, #353, .F. ) ;
#123 = EDGE_LOOP ( 'NONE', ( #28, #135, #297, #89 ) ) ;
#124 = DIRECTION ( 'NONE',  ( 0.000000000000000000, 0.000000000000000000, 1.000000000000000000 ) ) ;
#125 = ORIENTED_EDGE ( 'NONE', *, *, #140, .F. ) ;
#126 = VERTEX_POINT ( 'NONE', #235 ) ;
#127 = CARTESIAN_POINT ( 'NONE',  ( 0.000000000000000000, 0.000000000000000000, 42.00000000000000000 ) ) ;
#128 = ORGANIZATION ( 'UNSPECIFIED', 'UNSPECIFIED', '' ) ;
#129 = ORIENTED_EDGE ( 'NONE', *, *, #58, .F. ) ;
#130 = DIRECTION ( 'NONE',  ( 0.5000000000000003331, 6.123233995736769734E-17, -0.8660254037844383745 ) ) ;
#131 = PERSON ( 'UNSPECIFIED', 'UNSPECIFIED', 'UNSPECIFIED', ('UNSPECIFIED'), ('UNSPECIFIED'), ('UNSPECIFIED') ) ;
#132 = CARTESIAN_POINT ( 'NONE',  ( -2.500000000000000000, 3.061616997868383141E-16, 37.00000000000000000 ) ) ;
#133 = EDGE_CURVE ( 'NONE', #57, #170, #320, .T. ) ;
#134 = DIRECTION ( 'NONE',  ( 0.000000000000000000, 0.000000000000000000, 1.000000000000000000 ) ) ;
#135 = ORIENTED_EDGE ( 'NONE', *, *, #140, .T. ) ;
#136 = APPROVAL_PERSON_ORGANIZATION ( #247, #319, #7 ) ;
#137 = DIRECTION ( 'NONE',  ( 0.000000000000000000, 0.000000000000000000, -1.000000000000000000 ) ) ;
#138 = CYLINDRICAL_SURFACE ( 'NONE', #280, 10.00000000000000000 ) ;
#139 = DIRECTION ( 'NONE',  ( 1.000000000000000000, 0.000000000000000000, 0.000000000000000000 ) ) ;
#140 = EDGE_CURVE ( 'NONE', #71, #170, #18, .T. ) ;
#141 = AXIS2_PLACEMENT_3D ( 'NONE', #333, #197, #119 ) ;
#142 = LOCAL_TIME ( 8, 59, 22.00000000000000000, #255 ) ;
#143 = DIRECTION ( 'NONE',  ( 0.000000000000000000, 0.000000000000000000, 1.000000000000000000 ) ) ;
#144 = DATE_AND_TIME ( #224, #4 ) ;
#145 = DIRECTION ( 'NONE',  ( 1.000000000000000000, 0.000000000000000000, 0.000000000000000000 ) ) ;
#146 = ORIENTED_EDGE ( 'NONE', *, *, #323, .T. ) ;
#147 = DIRECTION ( 'NONE',  ( 1.000000000000000000, 0.000000000000000000, 0.000000000000000000 ) ) ;
#148 = DIRECTION ( 'NONE',  ( 1.000000000000000000, 0.000000000000000000, 0.000000000000000000 ) ) ;
#149 = CARTESIAN_POINT ( 'NONE',  ( 10.00000000000000000, 0.000000000000000000, 2.000000000000000000 ) ) ;
#150 = APPROVAL_STATUS ( 'not_yet_approved' ) ;
#151 = AXIS2_PLACEMENT_3D ( 'NONE', #106, #295, #139 ) ;
#152 = APPROVAL_DATE_TIME ( #62, #165 ) ;
#153 =( NAMED_UNIT ( * ) SI_UNIT ( $, .STERADIAN. ) SOLID_ANGLE_UNIT ( ) );
#154 = CARTESIAN_POINT ( 'NONE',  ( -2.500000000000000000, 3.061616997868383141E-16, 50.00000000000000000 ) ) ;
#155 = AXIS2_PLACEMENT_3D ( 'NONE', #292, #243, #352 ) ;
#156 = ORIENTED_EDGE ( 'NONE', *, *, #267, .F. ) ;
#157 = ADVANCED_FACE ( 'NONE', ( #161 ), #345, .T. ) ;
#158 = ORIENTED_EDGE ( 'NONE', *, *, #58, .T. ) ;
#159 = ORIENTED_EDGE ( 'NONE', *, *, #201, .T. ) ;
#160 = DIRECTION ( 'NONE',  ( 1.000000000000000000, 0.000000000000000000, 0.000000000000000000 ) ) ;
#161 = FACE_OUTER_BOUND ( 'NONE', #277, .T. ) ;
#162 = DIRECTION ( 'NONE',  ( 0.000000000000000000, 0.000000000000000000, -1.000000000000000000 ) ) ;
#163 = CONICAL_SURFACE ( 'NONE', #225, 10.00000000000000000, 0.5235987755982992597 ) ;
#164 = EDGE_CURVE ( 'NONE', #313, #227, #56, .T. ) ;
#165 = APPROVAL ( #150, 'UNSPECIFIED' ) ;
#166 = DATE_AND_TIME ( #55, #217 ) ;
#167 = CARTESIAN_POINT ( 'NONE',  ( 0.000000000000000000, 0.000000000000000000, 37.00000000000000000 ) ) ;
#168 = ORIENTED_EDGE ( 'NONE', *, *, #239, .T. ) ;
#169 = VECTOR ( 'NONE', #31, 1000.000000000000114 ) ;
#170 = VERTEX_POINT ( 'NONE', #118 ) ;
#171 = CYLINDRICAL_SURFACE ( 'NONE', #311, 10.00000000000000000 ) ;
#172 = EDGE_CURVE ( 'NONE', #170, #126, #95, .T. ) ;
#173 = DIRECTION ( 'NONE',  ( 0.000000000000000000, 0.000000000000000000, 1.000000000000000000 ) ) ;
#174 = FACE_OUTER_BOUND ( 'NONE', #68, .T. ) ;
#175 = AXIS2_PLACEMENT_3D ( 'NONE', #204, #88, #309 ) ;
#176 = CARTESIAN_POINT ( 'NONE',  ( -8.845299461620751202, 1.153941783232359380E-15, 0.000000000000000000 ) ) ;
#177 = EDGE_CURVE ( 'NONE', #266, #126, #250, .T. ) ;
#178 = CARTESIAN_POINT ( 'NONE',  ( 0.000000000000000000, 0.000000000000000000, 2.000000000000000000 ) ) ;
#179 = VERTEX_POINT ( 'NONE', #290 ) ;
#180 = FACE_OUTER_BOUND ( 'NONE', #236, .T. ) ;
#181 = CYLINDRICAL_SURFACE ( 'NONE', #284, 2.500000000000000000 ) ;
#182 = EDGE_CURVE ( 'NONE', #313, #275, #102, .T. ) ;
#183 = LINE ( 'NONE', #149, #202 ) ;
#184 =( NAMED_UNIT ( * ) PLANE_ANGLE_UNIT ( ) SI_UNIT ( $, .RADIAN. ) );
#185 = CIRCLE ( 'NONE', #332, 2.500000000000000000 ) ;
#186 = ORIENTED_EDGE ( 'NONE', *, *, #82, .F. ) ;
#187 = DIRECTION ( 'NONE',  ( 0.000000000000000000, 0.000000000000000000, 1.000000000000000000 ) ) ;
#188 = DIRECTION ( 'NONE',  ( -1.000000000000000000, 0.000000000000000000, 0.000000000000000000 ) ) ;
#189 = PRODUCT_DEFINITION_SHAPE ( 'NONE', 'NONE',  #234 ) ;
#190 = EDGE_CURVE ( 'NONE', #15, #57, #33, .T. ) ;
#191 = ORIENTED_EDGE ( 'NONE', *, *, #190, .F. ) ;
#192 = PERSON_AND_ORGANIZATION ( #131, #128 ) ;
#193 = CARTESIAN_POINT ( 'NONE',  ( -10.00000000000000000, 1.224646799147353256E-15, 2.000000000000000000 ) ) ;
#194 = CALENDAR_DATE ( 2021, 25, 10 ) ;
#195 = AXIS2_PLACEMENT_3D ( 'NONE', #5, #229, #200 ) ;
#196 = DATE_TIME_ROLE ( 'classification_date' ) ;
#197 = DIRECTION ( 'NONE',  ( 0.000000000000000000, 0.000000000000000000, 1.000000000000000000 ) ) ;
#198 = ORIENTED_EDGE ( 'NONE', *, *, #133, .T. ) ;
#199 = PERSON_AND_ORGANIZATION_ROLE ( 'creator' ) ;
#200 = DIRECTION ( 'NONE',  ( -1.000000000000000000, 0.000000000000000000, 0.000000000000000000 ) ) ;
#201 = EDGE_CURVE ( 'NONE', #227, #179, #262, .T. ) ;
#202 = VECTOR ( 'NONE', #205, 1000.000000000000114 ) ;
#203 = DIRECTION ( 'NONE',  ( 0.000000000000000000, 0.000000000000000000, 1.000000000000000000 ) ) ;
#204 = CARTESIAN_POINT ( 'NONE',  ( 0.000000000000000000, 0.000000000000000000, 2.000000000000000000 ) ) ;
#205 = DIRECTION ( 'NONE',  ( 0.5000000000000003331, 0.000000000000000000, 0.8660254037844383745 ) ) ;
#206 =( GEOMETRIC_REPRESENTATION_CONTEXT ( 3 ) GLOBAL_UNCERTAINTY_ASSIGNED_CONTEXT ( ( #92 ) ) GLOBAL_UNIT_ASSIGNED_CONTEXT ( ( #253, #184, #153 ) ) REPRESENTATION_CONTEXT ( 'NONE', 'WORKASPACE' ) );
#207 = EDGE_LOOP ( 'NONE', ( #11, #66, #251, #44 ) ) ;
#208 = ADVANCED_BREP_SHAPE_REPRESENTATION ( 'bj720-20001', ( #12, #117 ), #206 ) ;
#209 = EDGE_LOOP ( 'NONE', ( #340, #42, #159, #228 ) ) ;
#210 = CIRCLE ( 'NONE', #300, 10.00000000000000000 ) ;
#211 = CARTESIAN_POINT ( 'NONE',  ( 8.845299461620751202, 0.000000000000000000, 0.000000000000000000 ) ) ;
#212 = FACE_OUTER_BOUND ( 'NONE', #207, .T. ) ;
#213 = CARTESIAN_POINT ( 'NONE',  ( 0.000000000000000000, 0.000000000000000000, 2.000000000000000000 ) ) ;
#214 = PRODUCT_RELATED_PRODUCT_CATEGORY ( 'detail', '', ( #51 ) ) ;
#215 = CARTESIAN_POINT ( 'NONE',  ( -10.00000000000000000, 0.000000000000000000, 42.00000000000000000 ) ) ;
#216 = CARTESIAN_POINT ( 'NONE',  ( 0.000000000000000000, 0.000000000000000000, 37.00000000000000000 ) ) ;
#217 = LOCAL_TIME ( 8, 59, 22.00000000000000000, #330 ) ;
#218 = EDGE_LOOP ( 'NONE', ( #125, #146, #1, #307 ) ) ;
#219 = PERSON_AND_ORGANIZATION ( #131, #128 ) ;
#220 = PLANE ( 'NONE',  #9 ) ;
#221 = EDGE_CURVE ( 'NONE', #259, #50, #45, .T. ) ;
#222 = CARTESIAN_POINT ( 'NONE',  ( 7.113248654051849584, 1.047884259359867185E-15, 47.00000000000000000 ) ) ;
#223 = PERSON_AND_ORGANIZATION_ROLE ( 'design_supplier' ) ;
#224 = CALENDAR_DATE ( 2021, 25, 10 ) ;
#225 = AXIS2_PLACEMENT_3D ( 'NONE', #178, #67, #286 ) ;
#226 = CC_DESIGN_APPROVAL ( #14, ( #234 ) ) ;
#227 = VERTEX_POINT ( 'NONE', #242 ) ;
#228 = ORIENTED_EDGE ( 'NONE', *, *, #267, .T. ) ;
#229 = DIRECTION ( 'NONE',  ( 0.000000000000000000, 0.000000000000000000, -1.000000000000000000 ) ) ;
#230 = CARTESIAN_POINT ( 'NONE',  ( 10.00000000000000000, 0.000000000000000000, 50.00000000000000000 ) ) ;
#231 = CC_DESIGN_DATE_AND_TIME_ASSIGNMENT ( #166, #196, ( #22 ) ) ;
#232 = CONICAL_SURFACE ( 'NONE', #175, 10.00000000000000000, 0.5235987755982992597 ) ;
#233 = EDGE_CURVE ( 'NONE', #15, #126, #349, .T. ) ;
#234 = PRODUCT_DEFINITION ( 'UNKNOWN', '', #96, #63 ) ;
#235 = CARTESIAN_POINT ( 'NONE',  ( 10.00000000000000000, 0.000000000000000000, 42.00000000000000000 ) ) ;
#236 = EDGE_LOOP ( 'NONE', ( #61, #120, #198, #343 ) ) ;
#237 = AXIS2_PLACEMENT_3D ( 'NONE', #75, #83, #147 ) ;
#238 = DIRECTION ( 'NONE',  ( 1.000000000000000000, 0.000000000000000000, 0.000000000000000000 ) ) ;
#239 = EDGE_CURVE ( 'NONE', #227, #313, #115, .T. ) ;
#240 = DIRECTION ( 'NONE',  ( 1.000000000000000000, 0.000000000000000000, 0.000000000000000000 ) ) ;
#241 = DIRECTION ( 'NONE',  ( 0.000000000000000000, 0.000000000000000000, 1.000000000000000000 ) ) ;
#242 = CARTESIAN_POINT ( 'NONE',  ( 2.500000000000000000, 0.000000000000000000, 37.00000000000000000 ) ) ;
#243 = DIRECTION ( 'NONE',  ( 0.000000000000000000, 0.000000000000000000, 1.000000000000000000 ) ) ;
#244 = AXIS2_PLACEMENT_3D ( 'NONE', #213, #241, #76 ) ;
#245 = CARTESIAN_POINT ( 'NONE',  ( 2.500000000000000000, 0.000000000000000000, 50.00000000000000000 ) ) ;
#246 = PERSON_AND_ORGANIZATION_ROLE ( 'creator' ) ;
#247 = PERSON_AND_ORGANIZATION ( #131, #128 ) ;
#248 = LOCAL_TIME ( 8, 59, 22.00000000000000000, #327 ) ;
#249 = FACE_OUTER_BOUND ( 'NONE', #342, .T. ) ;
#250 = LINE ( 'NONE', #230, #294 ) ;
#251 = ORIENTED_EDGE ( 'NONE', *, *, #353, .T. ) ;
#252 = CC_DESIGN_PERSON_AND_ORGANIZATION_ASSIGNMENT ( #192, #246, ( #234 ) ) ;
#253 =( LENGTH_UNIT ( ) NAMED_UNIT ( * ) SI_UNIT ( .MILLI., .METRE. ) );
#254 = ORIENTED_EDGE ( 'NONE', *, *, #164, .T. ) ;
#255 = COORDINATED_UNIVERSAL_TIME_OFFSET ( 9, 0, .AHEAD. ) ;
#256 = CARTESIAN_POINT ( 'NONE',  ( 0.000000000000000000, 0.000000000000000000, 42.00000000000000000 ) ) ;
#257 = VECTOR ( 'NONE', #187, 1000.000000000000000 ) ;
#258 = EDGE_CURVE ( 'NONE', #57, #15, #288, .T. ) ;
#259 = VERTEX_POINT ( 'NONE', #176 ) ;
#260 = PERSON_AND_ORGANIZATION ( #131, #128 ) ;
#261 = APPLICATION_CONTEXT ( 'configuration controlled 3d designs of mechanical parts and assemblies' ) ;
#262 = LINE ( 'NONE', #245, #114 ) ;
#263 = PLANE ( 'NONE',  #3 ) ;
#264 = AXIS2_PLACEMENT_3D ( 'NONE', #256, #98, #240 ) ;
#265 = CC_DESIGN_APPROVAL ( #319, ( #22 ) ) ;
#266 = VERTEX_POINT ( 'NONE', #334 ) ;
#267 = EDGE_CURVE ( 'NONE', #179, #275, #185, .T. ) ;
#268 = CARTESIAN_POINT ( 'NONE',  ( 0.000000000000000000, 0.000000000000000000, 47.00000000000000000 ) ) ;
#269 = FACE_OUTER_BOUND ( 'NONE', #348, .T. ) ;
#270 = CONICAL_SURFACE ( 'NONE', #195, 10.00000000000000000, 0.5235987755982992597 ) ;
#271 = DIRECTION ( 'NONE',  ( 0.000000000000000000, 0.000000000000000000, 1.000000000000000000 ) ) ;
#272 = CC_DESIGN_SECURITY_CLASSIFICATION ( #22, ( #96 ) ) ;
#273 = DIRECTION ( 'NONE',  ( 0.000000000000000000, 0.000000000000000000, 1.000000000000000000 ) ) ;
#274 = DIRECTION ( 'NONE',  ( 0.000000000000000000, 0.000000000000000000, 1.000000000000000000 ) ) ;
#275 = VERTEX_POINT ( 'NONE', #93 ) ;
#276 = APPROVAL_DATE_TIME ( #299, #319 ) ;
#277 = EDGE_LOOP ( 'NONE', ( #168, #254 ) ) ;
#278 = APPROVAL_STATUS ( 'not_yet_approved' ) ;
#279 = CARTESIAN_POINT ( 'NONE',  ( 0.000000000000000000, 0.000000000000000000, 47.00000000000000000 ) ) ;
#280 = AXIS2_PLACEMENT_3D ( 'NONE', #346, #143, #107 ) ;
#281 = FACE_OUTER_BOUND ( 'NONE', #218, .T. ) ;
#282 = ADVANCED_FACE ( 'NONE', ( #249 ), #232, .T. ) ;
#283 = DIRECTION ( 'NONE',  ( 0.000000000000000000, 0.000000000000000000, 1.000000000000000000 ) ) ;
#284 = AXIS2_PLACEMENT_3D ( 'NONE', #293, #8, #43 ) ;
#285 = ORIENTED_EDGE ( 'NONE', *, *, #27, .F. ) ;
#286 = DIRECTION ( 'NONE',  ( 1.000000000000000000, 0.000000000000000000, 0.000000000000000000 ) ) ;
#287 = PERSON_AND_ORGANIZATION ( #131, #128 ) ;
#288 = CIRCLE ( 'NONE', #141, 7.113248654051849584 ) ;
#289 = ADVANCED_FACE ( 'NONE', ( #174 ), #270, .T. ) ;
#290 = CARTESIAN_POINT ( 'NONE',  ( 2.500000000000000000, 0.000000000000000000, 47.00000000000000000 ) ) ;
#291 = MECHANICAL_CONTEXT ( 'NONE', #261, 'mechanical' ) ;
#292 = CARTESIAN_POINT ( 'NONE',  ( 0.000000000000000000, 0.000000000000000000, 50.00000000000000000 ) ) ;
#293 = CARTESIAN_POINT ( 'NONE',  ( 0.000000000000000000, 0.000000000000000000, 50.00000000000000000 ) ) ;
#294 = VECTOR ( 'NONE', #173, 1000.000000000000000 ) ;
#295 = DIRECTION ( 'NONE',  ( 0.000000000000000000, 0.000000000000000000, 1.000000000000000000 ) ) ;
#296 = CARTESIAN_POINT ( 'NONE',  ( -10.00000000000000000, 1.224646799147353256E-15, 50.00000000000000000 ) ) ;
#297 = ORIENTED_EDGE ( 'NONE', *, *, #77, .F. ) ;
#298 = COORDINATED_UNIVERSAL_TIME_OFFSET ( 9, 0, .AHEAD. ) ;
#299 = DATE_AND_TIME ( #194, #248 ) ;
#300 = AXIS2_PLACEMENT_3D ( 'NONE', #103, #274, #324 ) ;
#301 = CC_DESIGN_APPROVAL ( #165, ( #96 ) ) ;
#302 = ADVANCED_FACE ( 'NONE', ( #281 ), #171, .T. ) ;
#303 = ORIENTED_EDGE ( 'NONE', *, *, #133, .F. ) ;
#304 = SECURITY_CLASSIFICATION_LEVEL ( 'unclassified' ) ;
#305 = DIRECTION ( 'NONE',  ( 0.000000000000000000, 0.000000000000000000, 1.000000000000000000 ) ) ;
#306 = ORIENTED_EDGE ( 'NONE', *, *, #323, .F. ) ;
#307 = ORIENTED_EDGE ( 'NONE', *, *, #172, .F. ) ;
#308 = AXIS2_PLACEMENT_3D ( 'NONE', #268, #25, #160 ) ;
#309 = DIRECTION ( 'NONE',  ( 1.000000000000000000, 0.000000000000000000, 0.000000000000000000 ) ) ;
#310 = CALENDAR_DATE ( 2021, 25, 10 ) ;
#311 = AXIS2_PLACEMENT_3D ( 'NONE', #37, #283, #341 ) ;
#312 = ORIENTED_EDGE ( 'NONE', *, *, #27, .T. ) ;
#313 = VERTEX_POINT ( 'NONE', #132 ) ;
#314 = EDGE_LOOP ( 'NONE', ( #158, #312, #186, #87 ) ) ;
#315 = ADVANCED_FACE ( 'NONE', ( #318 ), #181, .F. ) ;
#316 = DIRECTION ( 'NONE',  ( 1.000000000000000000, 0.000000000000000000, 0.000000000000000000 ) ) ;
#317 = ADVANCED_FACE ( 'NONE', ( #180 ), #53, .T. ) ;
#318 = FACE_OUTER_BOUND ( 'NONE', #209, .T. ) ;
#319 = APPROVAL ( #278, 'UNSPECIFIED' ) ;
#320 = LINE ( 'NONE', #215, #64 ) ;
#321 = APPLICATION_PROTOCOL_DEFINITION ( 'international standard', 'config_control_design', 1994, #261 ) ;
#322 = CARTESIAN_POINT ( 'NONE',  ( 0.000000000000000000, 0.000000000000000000, 0.000000000000000000 ) ) ;
#323 = EDGE_CURVE ( 'NONE', #71, #266, #210, .T. ) ;
#324 = DIRECTION ( 'NONE',  ( 1.000000000000000000, 0.000000000000000000, 0.000000000000000000 ) ) ;
#325 = CARTESIAN_POINT ( 'NONE',  ( 0.000000000000000000, 0.000000000000000000, 47.00000000000000000 ) ) ;
#326 = LINE ( 'NONE', #193, #169 ) ;
#327 = COORDINATED_UNIVERSAL_TIME_OFFSET ( 9, 0, .AHEAD. ) ;
#328 = ADVANCED_FACE ( 'NONE', ( #212 ), #73, .F. ) ;
#329 = COORDINATED_UNIVERSAL_TIME_OFFSET ( 9, 0, .AHEAD. ) ;
#330 = COORDINATED_UNIVERSAL_TIME_OFFSET ( 9, 0, .AHEAD. ) ;
#331 = ADVANCED_FACE ( 'NONE', ( #111, #269 ), #263, .F. ) ;
#332 = AXIS2_PLACEMENT_3D ( 'NONE', #279, #124, #34 ) ;
#333 = CARTESIAN_POINT ( 'NONE',  ( 0.000000000000000000, 0.000000000000000000, 47.00000000000000000 ) ) ;
#334 = CARTESIAN_POINT ( 'NONE',  ( 10.00000000000000000, 0.000000000000000000, 2.000000000000000000 ) ) ;
#335 = ADVANCED_FACE ( 'NONE', ( #48 ), #138, .T. ) ;
#336 = CIRCLE ( 'NONE', #244, 10.00000000000000000 ) ;
#337 = CARTESIAN_POINT ( 'NONE',  ( -10.00000000000000000, 1.224646799147353256E-15, 2.000000000000000000 ) ) ;
#338 = CC_DESIGN_PERSON_AND_ORGANIZATION_ASSIGNMENT ( #36, #80, ( #22 ) ) ;
#339 = VECTOR ( 'NONE', #130, 1000.000000000000114 ) ;
#340 = ORIENTED_EDGE ( 'NONE', *, *, #182, .F. ) ;
#341 = DIRECTION ( 'NONE',  ( 1.000000000000000000, 0.000000000000000000, 0.000000000000000000 ) ) ;
#342 = EDGE_LOOP ( 'NONE', ( #285, #54, #97, #306 ) ) ;
#343 = ORIENTED_EDGE ( 'NONE', *, *, #172, .T. ) ;
#344 = CIRCLE ( 'NONE', #264, 10.00000000000000000 ) ;
#345 = PLANE ( 'NONE',  #237 ) ;
#346 = CARTESIAN_POINT ( 'NONE',  ( 0.000000000000000000, 0.000000000000000000, 50.00000000000000000 ) ) ;
#347 = DIRECTION ( 'NONE',  ( 0.000000000000000000, 0.000000000000000000, 1.000000000000000000 ) ) ;
#348 = EDGE_LOOP ( 'NONE', ( #121, #79 ) ) ;
#349 = LINE ( 'NONE', #2, #339 ) ;
#350 = AXIS2_PLACEMENT_3D ( 'NONE', #167, #273, #148 ) ;
#351 = APPROVAL_ROLE ( '' ) ;
#352 = DIRECTION ( 'NONE',  ( 1.000000000000000000, 0.000000000000000000, 0.000000000000000000 ) ) ;
#353 = EDGE_CURVE ( 'NONE', #275, #179, #19, .T. ) ;
#354 = CALENDAR_DATE ( 2021, 25, 10 ) ;
#355 = CC_DESIGN_DATE_AND_TIME_ASSIGNMENT ( #52, #112, ( #234 ) ) ;
ENDSEC;
END-ISO-10303-21;
