ISO-10303-21;
HEADER;
FILE_DESCRIPTION (( 'STEP AP203' ),
    '1' );
FILE_NAME ('bj400-16075.STEP',
    '2021-10-24T23:52:14',
    ( '' ),
    ( '' ),
    'SwSTEP 2.0',
    'SolidWorks 2020',
    '' );
FILE_SCHEMA (( 'CONFIG_CONTROL_DESIGN' ));
ENDSEC;

DATA;
#1 = APPROVAL ( #146, 'UNSPECIFIED' ) ;
#2 = APPROVAL_DATE_TIME ( #80, #143 ) ;
#3 = FACE_OUTER_BOUND ( 'NONE', #197, .T. ) ;
#4 = ADVANCED_FACE ( 'NONE', ( #304 ), #20, .F. ) ;
#5 = ORIENTED_EDGE ( 'NONE', *, *, #194, .T. ) ;
#6 = SECURITY_CLASSIFICATION ( '', '', #174 ) ;
#7 = DIRECTION ( 'NONE',  ( 1.000000000000000000, 0.000000000000000000, 0.000000000000000000 ) ) ;
#8 = ORIENTED_EDGE ( 'NONE', *, *, #278, .F. ) ;
#9 = DIRECTION ( 'NONE',  ( 0.000000000000000000, 0.000000000000000000, 1.000000000000000000 ) ) ;
#10 = PRODUCT_DEFINITION ( 'UNKNOWN', '', #243, #316 ) ;
#11 = PLANE ( 'NONE',  #282 ) ;
#12 = CIRCLE ( 'NONE', #212, 13.00000000000000000 ) ;
#13 = ORIENTED_EDGE ( 'NONE', *, *, #26, .F. ) ;
#14 = DIRECTION ( 'NONE',  ( 0.000000000000000000, 0.000000000000000000, 1.000000000000000000 ) ) ;
#15 = DIRECTION ( 'NONE',  ( 1.000000000000000000, 0.000000000000000000, 0.000000000000000000 ) ) ;
#16 = EDGE_LOOP ( 'NONE', ( #294, #149, #241, #261 ) ) ;
#17 = PERSON_AND_ORGANIZATION ( #156, #311 ) ;
#18 = CARTESIAN_POINT ( 'NONE',  ( 13.00000000000000000, 0.000000000000000000, 75.00000000000000000 ) ) ;
#19 = DIRECTION ( 'NONE',  ( 0.000000000000000000, 0.000000000000000000, 1.000000000000000000 ) ) ;
#20 = CYLINDRICAL_SURFACE ( 'NONE', #93, 13.00000000000000000 ) ;
#21 = EDGE_CURVE ( 'NONE', #71, #269, #30, .T. ) ;
#22 = ORIENTED_EDGE ( 'NONE', *, *, #79, .F. ) ;
#23 = AXIS2_PLACEMENT_3D ( 'NONE', #285, #29, #66 ) ;
#24 = DIRECTION ( 'NONE',  ( 0.000000000000000000, 0.000000000000000000, 1.000000000000000000 ) ) ;
#25 = CARTESIAN_POINT ( 'NONE',  ( -8.000000000000000000, 9.797174393178825657E-16, 40.00000000000000000 ) ) ;
#26 = EDGE_CURVE ( 'NONE', #218, #120, #109, .T. ) ;
#27 = COORDINATED_UNIVERSAL_TIME_OFFSET ( 9, 0, .AHEAD. ) ;
#28 = CC_DESIGN_PERSON_AND_ORGANIZATION_ASSIGNMENT ( #17, #176, ( #243 ) ) ;
#29 = DIRECTION ( 'NONE',  ( 0.000000000000000000, 0.000000000000000000, 1.000000000000000000 ) ) ;
#30 = CIRCLE ( 'NONE', #34, 8.000000000000000000 ) ;
#31 = PRODUCT ( 'bj400-16075', 'bj400-16075', '', ( #139 ) ) ;
#32 = APPROVAL_PERSON_ORGANIZATION ( #257, #143, #166 ) ;
#33 = CARTESIAN_POINT ( 'NONE',  ( 8.000000000000000000, 0.000000000000000000, 0.000000000000000000 ) ) ;
#34 = AXIS2_PLACEMENT_3D ( 'NONE', #137, #252, #279 ) ;
#35 = FACE_OUTER_BOUND ( 'NONE', #315, .T. ) ;
#36 = LOCAL_TIME ( 8, 52, 14.00000000000000000, #92 ) ;
#37 = ORIENTED_EDGE ( 'NONE', *, *, #167, .F. ) ;
#38 = PERSON_AND_ORGANIZATION ( #156, #311 ) ;
#39 = CC_DESIGN_PERSON_AND_ORGANIZATION_ASSIGNMENT ( #211, #310, ( #31 ) ) ;
#40 = FACE_OUTER_BOUND ( 'NONE', #141, .T. ) ;
#41 = EDGE_CURVE ( 'NONE', #292, #320, #55, .T. ) ;
#42 = ORIENTED_EDGE ( 'NONE', *, *, #255, .F. ) ;
#43 = COORDINATED_UNIVERSAL_TIME_OFFSET ( 9, 0, .AHEAD. ) ;
#44 = DIRECTION ( 'NONE',  ( 1.000000000000000000, 0.000000000000000000, 0.000000000000000000 ) ) ;
#45 = ORIENTED_EDGE ( 'NONE', *, *, #60, .T. ) ;
#46 = ADVANCED_BREP_SHAPE_REPRESENTATION ( 'bj400-16075', ( #52, #235 ), #189 ) ;
#47 = CLOSED_SHELL ( 'NONE', ( #4, #95, #314, #117, #144, #177, #230, #217, #54 ) ) ;
#48 = DIRECTION ( 'NONE',  ( -1.000000000000000000, 0.000000000000000000, 0.000000000000000000 ) ) ;
#49 = CIRCLE ( 'NONE', #231, 13.00000000000000000 ) ;
#50 = VERTEX_POINT ( 'NONE', #138 ) ;
#51 = DIRECTION ( 'NONE',  ( 0.000000000000000000, 0.000000000000000000, 1.000000000000000000 ) ) ;
#52 = MANIFOLD_SOLID_BREP ( 'Imported1', #47 ) ;
#53 = CARTESIAN_POINT ( 'NONE',  ( -25.00000000000000000, 3.061616997868383043E-15, 75.00000000000000000 ) ) ;
#54 = ADVANCED_FACE ( 'NONE', ( #232, #329 ), #112, .F. ) ;
#55 = LINE ( 'NONE', #254, #199 ) ;
#56 = DIRECTION ( 'NONE',  ( 0.000000000000000000, 0.000000000000000000, 1.000000000000000000 ) ) ;
#57 = VERTEX_POINT ( 'NONE', #53 ) ;
#58 = CARTESIAN_POINT ( 'NONE',  ( 13.00000000000000000, 0.000000000000000000, 40.00000000000000000 ) ) ;
#59 = AXIS2_PLACEMENT_3D ( 'NONE', #123, #97, #142 ) ;
#60 = EDGE_CURVE ( 'NONE', #50, #157, #192, .T. ) ;
#61 = CYLINDRICAL_SURFACE ( 'NONE', #59, 8.000000000000000000 ) ;
#62 = AXIS2_PLACEMENT_3D ( 'NONE', #190, #286, #7 ) ;
#63 = ORIENTED_EDGE ( 'NONE', *, *, #259, .T. ) ;
#64 = AXIS2_PLACEMENT_3D ( 'NONE', #265, #69, #242 ) ;
#65 = ORIENTED_EDGE ( 'NONE', *, *, #159, .T. ) ;
#66 = DIRECTION ( 'NONE',  ( 1.000000000000000000, 0.000000000000000000, 0.000000000000000000 ) ) ;
#67 = DATE_TIME_ROLE ( 'classification_date' ) ;
#68 = CC_DESIGN_DATE_AND_TIME_ASSIGNMENT ( #295, #67, ( #6 ) ) ;
#69 = DIRECTION ( 'NONE',  ( 0.000000000000000000, 0.000000000000000000, 1.000000000000000000 ) ) ;
#70 = AXIS2_PLACEMENT_3D ( 'NONE', #72, #247, #133 ) ;
#71 = VERTEX_POINT ( 'NONE', #105 ) ;
#72 = CARTESIAN_POINT ( 'NONE',  ( 0.000000000000000000, 0.000000000000000000, 75.00000000000000000 ) ) ;
#73 = APPROVAL_STATUS ( 'not_yet_approved' ) ;
#74 = CYLINDRICAL_SURFACE ( 'NONE', #86, 25.00000000000000000 ) ;
#75 = CIRCLE ( 'NONE', #70, 13.00000000000000000 ) ;
#76 = VERTEX_POINT ( 'NONE', #206 ) ;
#77 = APPROVAL_ROLE ( '' ) ;
#78 = FACE_OUTER_BOUND ( 'NONE', #171, .T. ) ;
#79 = EDGE_CURVE ( 'NONE', #120, #218, #290, .T. ) ;
#80 = DATE_AND_TIME ( #228, #220 ) ;
#81 = CARTESIAN_POINT ( 'NONE',  ( 0.000000000000000000, 0.000000000000000000, 0.000000000000000000 ) ) ;
#82 = EDGE_CURVE ( 'NONE', #76, #96, #85, .T. ) ;
#83 = EDGE_CURVE ( 'NONE', #57, #258, #233, .T. ) ;
#84 = DIRECTION ( 'NONE',  ( 0.000000000000000000, 0.000000000000000000, 1.000000000000000000 ) ) ;
#85 = CIRCLE ( 'NONE', #62, 8.000000000000000000 ) ;
#86 = AXIS2_PLACEMENT_3D ( 'NONE', #326, #183, #125 ) ;
#87 = SHAPE_DEFINITION_REPRESENTATION ( #124, #46 ) ;
#88 = DIRECTION ( 'NONE',  ( -1.000000000000000000, 0.000000000000000000, 0.000000000000000000 ) ) ;
#89 = APPLICATION_PROTOCOL_DEFINITION ( 'international standard', 'config_control_design', 1994, #186 ) ;
#90 = CIRCLE ( 'NONE', #195, 8.000000000000000000 ) ;
#91 = ORIENTED_EDGE ( 'NONE', *, *, #317, .F. ) ;
#92 = COORDINATED_UNIVERSAL_TIME_OFFSET ( 9, 0, .AHEAD. ) ;
#93 = AXIS2_PLACEMENT_3D ( 'NONE', #302, #277, #227 ) ;
#94 = ORIENTED_EDGE ( 'NONE', *, *, #82, .F. ) ;
#95 = ADVANCED_FACE ( 'NONE', ( #260 ), #121, .T. ) ;
#96 = VERTEX_POINT ( 'NONE', #216 ) ;
#97 = DIRECTION ( 'NONE',  ( 0.000000000000000000, 0.000000000000000000, 1.000000000000000000 ) ) ;
#98 = VECTOR ( 'NONE', #102, 1000.000000000000000 ) ;
#99 = CYLINDRICAL_SURFACE ( 'NONE', #64, 13.00000000000000000 ) ;
#100 = ORIENTED_EDGE ( 'NONE', *, *, #82, .T. ) ;
#101 = DATE_TIME_ROLE ( 'creation_date' ) ;
#102 = DIRECTION ( 'NONE',  ( 0.000000000000000000, 0.000000000000000000, 1.000000000000000000 ) ) ;
#103 = DIRECTION ( 'NONE',  ( 0.000000000000000000, 0.000000000000000000, 1.000000000000000000 ) ) ;
#104 = AXIS2_PLACEMENT_3D ( 'NONE', #293, #9, #219 ) ;
#105 = CARTESIAN_POINT ( 'NONE',  ( -8.000000000000000000, 9.797174393178825657E-16, 15.00000000000000000 ) ) ;
#106 = DIRECTION ( 'NONE',  ( 1.000000000000000000, 0.000000000000000000, 0.000000000000000000 ) ) ;
#107 = DIRECTION ( 'NONE',  ( 0.000000000000000000, 0.000000000000000000, 1.000000000000000000 ) ) ;
#108 = LINE ( 'NONE', #25, #145 ) ;
#109 = CIRCLE ( 'NONE', #249, 25.00000000000000000 ) ;
#110 = AXIS2_PLACEMENT_3D ( 'NONE', #175, #14, #131 ) ;
#111 = LOCAL_TIME ( 8, 52, 14.00000000000000000, #289 ) ;
#112 = PLANE ( 'NONE',  #113 ) ;
#113 = AXIS2_PLACEMENT_3D ( 'NONE', #210, #309, #88 ) ;
#114 = ORIENTED_EDGE ( 'NONE', *, *, #83, .T. ) ;
#115 = CC_DESIGN_APPROVAL ( #151, ( #243 ) ) ;
#116 = PERSON_AND_ORGANIZATION ( #156, #311 ) ;
#117 = ADVANCED_FACE ( 'NONE', ( #35 ), #61, .F. ) ;
#118 = PLANE ( 'NONE',  #135 ) ;
#119 = DIRECTION ( 'NONE',  ( 0.000000000000000000, 0.000000000000000000, 1.000000000000000000 ) ) ;
#120 = VERTEX_POINT ( 'NONE', #234 ) ;
#121 = CYLINDRICAL_SURFACE ( 'NONE', #262, 25.00000000000000000 ) ;
#122 = CALENDAR_DATE ( 2021, 25, 10 ) ;
#123 = CARTESIAN_POINT ( 'NONE',  ( 0.000000000000000000, 0.000000000000000000, 40.00000000000000000 ) ) ;
#124 = PRODUCT_DEFINITION_SHAPE ( 'NONE', 'NONE',  #10 ) ;
#125 = DIRECTION ( 'NONE',  ( 1.000000000000000000, 0.000000000000000000, 0.000000000000000000 ) ) ;
#126 = EDGE_LOOP ( 'NONE', ( #132, #201 ) ) ;
#127 = UNCERTAINTY_MEASURE_WITH_UNIT (LENGTH_MEASURE( 1.000000000000000082E-05 ), #328, 'distance_accuracy_value', 'NONE');
#128 = CARTESIAN_POINT ( 'NONE',  ( 25.00000000000000000, 0.000000000000000000, 75.00000000000000000 ) ) ;
#129 = ORIENTED_EDGE ( 'NONE', *, *, #208, .F. ) ;
#130 = DATE_AND_TIME ( #182, #111 ) ;
#131 = DIRECTION ( 'NONE',  ( 1.000000000000000000, 0.000000000000000000, 0.000000000000000000 ) ) ;
#132 = ORIENTED_EDGE ( 'NONE', *, *, #259, .F. ) ;
#133 = DIRECTION ( 'NONE',  ( 1.000000000000000000, 0.000000000000000000, 0.000000000000000000 ) ) ;
#134 = CYLINDRICAL_SURFACE ( 'NONE', #256, 8.000000000000000000 ) ;
#135 = AXIS2_PLACEMENT_3D ( 'NONE', #33, #276, #44 ) ;
#136 = CC_DESIGN_PERSON_AND_ORGANIZATION_ASSIGNMENT ( #267, #160, ( #6 ) ) ;
#137 = CARTESIAN_POINT ( 'NONE',  ( 0.000000000000000000, 0.000000000000000000, 15.00000000000000000 ) ) ;
#138 = CARTESIAN_POINT ( 'NONE',  ( 13.00000000000000000, 0.000000000000000000, 15.00000000000000000 ) ) ;
#139 = MECHANICAL_CONTEXT ( 'NONE', #327, 'mechanical' ) ;
#140 =( NAMED_UNIT ( * ) PLANE_ANGLE_UNIT ( ) SI_UNIT ( $, .RADIAN. ) );
#141 = EDGE_LOOP ( 'NONE', ( #5, #114 ) ) ;
#142 = DIRECTION ( 'NONE',  ( 1.000000000000000000, 0.000000000000000000, 0.000000000000000000 ) ) ;
#143 = APPROVAL ( #193, 'UNSPECIFIED' ) ;
#144 = ADVANCED_FACE ( 'NONE', ( #3, #214 ), #118, .F. ) ;
#145 = VECTOR ( 'NONE', #84, 1000.000000000000000 ) ;
#146 = APPROVAL_STATUS ( 'not_yet_approved' ) ;
#147 = FACE_OUTER_BOUND ( 'NONE', #178, .T. ) ;
#148 = EDGE_CURVE ( 'NONE', #120, #57, #205, .T. ) ;
#149 = ORIENTED_EDGE ( 'NONE', *, *, #79, .T. ) ;
#150 = CARTESIAN_POINT ( 'NONE',  ( 25.00000000000000000, 0.000000000000000000, 0.000000000000000000 ) ) ;
#151 = APPROVAL ( #73, 'UNSPECIFIED' ) ;
#152 = ORIENTED_EDGE ( 'NONE', *, *, #308, .F. ) ;
#153 = AXIS2_PLACEMENT_3D ( 'NONE', #203, #271, #161 ) ;
#154 = CARTESIAN_POINT ( 'NONE',  ( -13.00000000000000000, 1.592040838891559095E-15, 15.00000000000000000 ) ) ;
#155 = CC_DESIGN_APPROVAL ( #143, ( #10 ) ) ;
#156 = PERSON ( 'UNSPECIFIED', 'UNSPECIFIED', 'UNSPECIFIED', ('UNSPECIFIED'), ('UNSPECIFIED'), ('UNSPECIFIED') ) ;
#157 = VERTEX_POINT ( 'NONE', #18 ) ;
#158 = DIRECTION ( 'NONE',  ( 1.000000000000000000, 0.000000000000000000, 0.000000000000000000 ) ) ;
#159 = EDGE_CURVE ( 'NONE', #76, #269, #225, .T. ) ;
#160 = PERSON_AND_ORGANIZATION_ROLE ( 'classification_officer' ) ;
#161 = DIRECTION ( 'NONE',  ( 1.000000000000000000, 0.000000000000000000, 0.000000000000000000 ) ) ;
#162 = CALENDAR_DATE ( 2021, 25, 10 ) ;
#163 = AXIS2_PLACEMENT_3D ( 'NONE', #185, #119, #15 ) ;
#164 = DIRECTION ( 'NONE',  ( 0.000000000000000000, 0.000000000000000000, 1.000000000000000000 ) ) ;
#165 = CC_DESIGN_SECURITY_CLASSIFICATION ( #6, ( #243 ) ) ;
#166 = APPROVAL_ROLE ( '' ) ;
#167 = EDGE_CURVE ( 'NONE', #157, #320, #237, .T. ) ;
#168 = CARTESIAN_POINT ( 'NONE',  ( 0.000000000000000000, 0.000000000000000000, 40.00000000000000000 ) ) ;
#169 = EDGE_LOOP ( 'NONE', ( #173, #297, #238, #152 ) ) ;
#170 = DIRECTION ( 'NONE',  ( 0.000000000000000000, 0.000000000000000000, 1.000000000000000000 ) ) ;
#171 = EDGE_LOOP ( 'NONE', ( #42, #266, #245, #202 ) ) ;
#172 = DIRECTION ( 'NONE',  ( 1.000000000000000000, 0.000000000000000000, 0.000000000000000000 ) ) ;
#173 = ORIENTED_EDGE ( 'NONE', *, *, #26, .T. ) ;
#174 = SECURITY_CLASSIFICATION_LEVEL ( 'unclassified' ) ;
#175 = CARTESIAN_POINT ( 'NONE',  ( 0.000000000000000000, 0.000000000000000000, 75.00000000000000000 ) ) ;
#176 = PERSON_AND_ORGANIZATION_ROLE ( 'design_supplier' ) ;
#177 = ADVANCED_FACE ( 'NONE', ( #221 ), #74, .T. ) ;
#178 = EDGE_LOOP ( 'NONE', ( #181, #129, #45, #184 ) ) ;
#179 = APPROVAL_DATE_TIME ( #130, #151 ) ;
#180 = CARTESIAN_POINT ( 'NONE',  ( -25.00000000000000000, 3.061616997868383043E-15, 40.00000000000000000 ) ) ;
#181 = ORIENTED_EDGE ( 'NONE', *, *, #41, .F. ) ;
#182 = CALENDAR_DATE ( 2021, 25, 10 ) ;
#183 = DIRECTION ( 'NONE',  ( 0.000000000000000000, 0.000000000000000000, 1.000000000000000000 ) ) ;
#184 = ORIENTED_EDGE ( 'NONE', *, *, #167, .T. ) ;
#185 = CARTESIAN_POINT ( 'NONE',  ( 0.000000000000000000, 0.000000000000000000, 0.000000000000000000 ) ) ;
#186 = APPLICATION_CONTEXT ( 'configuration controlled 3d designs of mechanical parts and assemblies' ) ;
#187 = DIRECTION ( 'NONE',  ( 1.000000000000000000, 0.000000000000000000, 0.000000000000000000 ) ) ;
#188 = CIRCLE ( 'NONE', #153, 25.00000000000000000 ) ;
#189 =( GEOMETRIC_REPRESENTATION_CONTEXT ( 3 ) GLOBAL_UNCERTAINTY_ASSIGNED_CONTEXT ( ( #127 ) ) GLOBAL_UNIT_ASSIGNED_CONTEXT ( ( #328, #140, #207 ) ) REPRESENTATION_CONTEXT ( 'NONE', 'WORKASPACE' ) );
#190 = CARTESIAN_POINT ( 'NONE',  ( 0.000000000000000000, 0.000000000000000000, 0.000000000000000000 ) ) ;
#191 = APPLICATION_PROTOCOL_DEFINITION ( 'international standard', 'config_control_design', 1994, #327 ) ;
#192 = LINE ( 'NONE', #58, #313 ) ;
#193 = APPROVAL_STATUS ( 'not_yet_approved' ) ;
#194 = EDGE_CURVE ( 'NONE', #258, #57, #188, .T. ) ;
#195 = AXIS2_PLACEMENT_3D ( 'NONE', #268, #51, #158 ) ;
#196 = ORIENTED_EDGE ( 'NONE', *, *, #255, .T. ) ;
#197 = EDGE_LOOP ( 'NONE', ( #13, #22 ) ) ;
#198 = PERSON_AND_ORGANIZATION ( #156, #311 ) ;
#199 = VECTOR ( 'NONE', #24, 1000.000000000000000 ) ;
#200 = CARTESIAN_POINT ( 'NONE',  ( 25.00000000000000000, 0.000000000000000000, 75.00000000000000000 ) ) ;
#201 = ORIENTED_EDGE ( 'NONE', *, *, #21, .F. ) ;
#202 = ORIENTED_EDGE ( 'NONE', *, *, #159, .F. ) ;
#203 = CARTESIAN_POINT ( 'NONE',  ( 0.000000000000000000, 0.000000000000000000, 75.00000000000000000 ) ) ;
#204 = CIRCLE ( 'NONE', #104, 8.000000000000000000 ) ;
#205 = LINE ( 'NONE', #180, #98 ) ;
#206 = CARTESIAN_POINT ( 'NONE',  ( 8.000000000000000000, 0.000000000000000000, 0.000000000000000000 ) ) ;
#207 =( NAMED_UNIT ( * ) SI_UNIT ( $, .STERADIAN. ) SOLID_ANGLE_UNIT ( ) );
#208 = EDGE_CURVE ( 'NONE', #50, #292, #49, .T. ) ;
#209 = APPROVAL_DATE_TIME ( #280, #1 ) ;
#210 = CARTESIAN_POINT ( 'NONE',  ( 13.00000000000000000, 0.000000000000000000, 15.00000000000000000 ) ) ;
#211 = PERSON_AND_ORGANIZATION ( #156, #311 ) ;
#212 = AXIS2_PLACEMENT_3D ( 'NONE', #274, #19, #106 ) ;
#213 = PERSON_AND_ORGANIZATION_ROLE ( 'creator' ) ;
#214 = FACE_BOUND ( 'NONE', #283, .T. ) ;
#215 = EDGE_LOOP ( 'NONE', ( #322, #272, #323, #222 ) ) ;
#216 = CARTESIAN_POINT ( 'NONE',  ( -8.000000000000000000, 9.797174393178825657E-16, 0.000000000000000000 ) ) ;
#217 = ADVANCED_FACE ( 'NONE', ( #147 ), #99, .F. ) ;
#218 = VERTEX_POINT ( 'NONE', #150 ) ;
#219 = DIRECTION ( 'NONE',  ( 1.000000000000000000, 0.000000000000000000, 0.000000000000000000 ) ) ;
#220 = LOCAL_TIME ( 8, 52, 14.00000000000000000, #27 ) ;
#221 = FACE_OUTER_BOUND ( 'NONE', #16, .T. ) ;
#222 = ORIENTED_EDGE ( 'NONE', *, *, #60, .F. ) ;
#223 = CARTESIAN_POINT ( 'NONE',  ( 25.00000000000000000, 0.000000000000000000, 40.00000000000000000 ) ) ;
#224 = LOCAL_TIME ( 8, 52, 14.00000000000000000, #43 ) ;
#225 = LINE ( 'NONE', #319, #305 ) ;
#226 = EDGE_CURVE ( 'NONE', #292, #50, #12, .T. ) ;
#227 = DIRECTION ( 'NONE',  ( 1.000000000000000000, 0.000000000000000000, 0.000000000000000000 ) ) ;
#228 = CALENDAR_DATE ( 2021, 25, 10 ) ;
#229 = CC_DESIGN_DATE_AND_TIME_ASSIGNMENT ( #300, #101, ( #10 ) ) ;
#230 = ADVANCED_FACE ( 'NONE', ( #240, #40 ), #11, .F. ) ;
#231 = AXIS2_PLACEMENT_3D ( 'NONE', #291, #248, #298 ) ;
#232 = FACE_BOUND ( 'NONE', #126, .T. ) ;
#233 = CIRCLE ( 'NONE', #23, 25.00000000000000000 ) ;
#234 = CARTESIAN_POINT ( 'NONE',  ( -25.00000000000000000, 3.061616997868383043E-15, 0.000000000000000000 ) ) ;
#235 = AXIS2_PLACEMENT_3D ( 'NONE', #281, #56, #253 ) ;
#236 = CALENDAR_DATE ( 2021, 25, 10 ) ;
#237 = CIRCLE ( 'NONE', #110, 13.00000000000000000 ) ;
#238 = ORIENTED_EDGE ( 'NONE', *, *, #194, .F. ) ;
#239 = ORIENTED_EDGE ( 'NONE', *, *, #208, .T. ) ;
#240 = FACE_BOUND ( 'NONE', #288, .T. ) ;
#241 = ORIENTED_EDGE ( 'NONE', *, *, #308, .T. ) ;
#242 = DIRECTION ( 'NONE',  ( 1.000000000000000000, 0.000000000000000000, 0.000000000000000000 ) ) ;
#243 = PRODUCT_DEFINITION_FORMATION_WITH_SPECIFIED_SOURCE ( 'ANY', '', #31, .NOT_KNOWN. ) ;
#244 = PERSON_AND_ORGANIZATION ( #156, #311 ) ;
#245 = ORIENTED_EDGE ( 'NONE', *, *, #21, .T. ) ;
#246 = PERSON_AND_ORGANIZATION_ROLE ( 'creator' ) ;
#247 = DIRECTION ( 'NONE',  ( 0.000000000000000000, 0.000000000000000000, 1.000000000000000000 ) ) ;
#248 = DIRECTION ( 'NONE',  ( 0.000000000000000000, 0.000000000000000000, 1.000000000000000000 ) ) ;
#249 = AXIS2_PLACEMENT_3D ( 'NONE', #81, #107, #187 ) ;
#250 = APPROVAL_PERSON_ORGANIZATION ( #198, #151, #77 ) ;
#251 = PRODUCT_RELATED_PRODUCT_CATEGORY ( 'detail', '', ( #31 ) ) ;
#252 = DIRECTION ( 'NONE',  ( 0.000000000000000000, 0.000000000000000000, 1.000000000000000000 ) ) ;
#253 = DIRECTION ( 'NONE',  ( 1.000000000000000000, 0.000000000000000000, 0.000000000000000000 ) ) ;
#254 = CARTESIAN_POINT ( 'NONE',  ( -13.00000000000000000, 1.592040838891559095E-15, 40.00000000000000000 ) ) ;
#255 = EDGE_CURVE ( 'NONE', #96, #76, #204, .T. ) ;
#256 = AXIS2_PLACEMENT_3D ( 'NONE', #307, #164, #303 ) ;
#257 = PERSON_AND_ORGANIZATION ( #156, #311 ) ;
#258 = VERTEX_POINT ( 'NONE', #200 ) ;
#259 = EDGE_CURVE ( 'NONE', #269, #71, #90, .T. ) ;
#260 = FACE_OUTER_BOUND ( 'NONE', #169, .T. ) ;
#261 = ORIENTED_EDGE ( 'NONE', *, *, #83, .F. ) ;
#262 = AXIS2_PLACEMENT_3D ( 'NONE', #168, #170, #172 ) ;
#263 = CC_DESIGN_APPROVAL ( #1, ( #6 ) ) ;
#264 = EDGE_LOOP ( 'NONE', ( #239, #275 ) ) ;
#265 = CARTESIAN_POINT ( 'NONE',  ( 0.000000000000000000, 0.000000000000000000, 40.00000000000000000 ) ) ;
#266 = ORIENTED_EDGE ( 'NONE', *, *, #317, .T. ) ;
#267 = PERSON_AND_ORGANIZATION ( #156, #311 ) ;
#268 = CARTESIAN_POINT ( 'NONE',  ( 0.000000000000000000, 0.000000000000000000, 15.00000000000000000 ) ) ;
#269 = VERTEX_POINT ( 'NONE', #324 ) ;
#270 = APPROVAL_ROLE ( '' ) ;
#271 = DIRECTION ( 'NONE',  ( 0.000000000000000000, 0.000000000000000000, 1.000000000000000000 ) ) ;
#272 = ORIENTED_EDGE ( 'NONE', *, *, #41, .T. ) ;
#273 = LOCAL_TIME ( 8, 52, 14.00000000000000000, #318 ) ;
#274 = CARTESIAN_POINT ( 'NONE',  ( 0.000000000000000000, 0.000000000000000000, 15.00000000000000000 ) ) ;
#275 = ORIENTED_EDGE ( 'NONE', *, *, #226, .T. ) ;
#276 = DIRECTION ( 'NONE',  ( 0.000000000000000000, 0.000000000000000000, 1.000000000000000000 ) ) ;
#277 = DIRECTION ( 'NONE',  ( 0.000000000000000000, 0.000000000000000000, 1.000000000000000000 ) ) ;
#278 = EDGE_CURVE ( 'NONE', #320, #157, #75, .T. ) ;
#279 = DIRECTION ( 'NONE',  ( 1.000000000000000000, 0.000000000000000000, 0.000000000000000000 ) ) ;
#280 = DATE_AND_TIME ( #162, #273 ) ;
#281 = CARTESIAN_POINT ( 'NONE',  ( 0.000000000000000000, 0.000000000000000000, 0.000000000000000000 ) ) ;
#282 = AXIS2_PLACEMENT_3D ( 'NONE', #128, #321, #48 ) ;
#283 = EDGE_LOOP ( 'NONE', ( #100, #196 ) ) ;
#284 = CC_DESIGN_PERSON_AND_ORGANIZATION_ASSIGNMENT ( #116, #213, ( #10 ) ) ;
#285 = CARTESIAN_POINT ( 'NONE',  ( 0.000000000000000000, 0.000000000000000000, 75.00000000000000000 ) ) ;
#286 = DIRECTION ( 'NONE',  ( 0.000000000000000000, 0.000000000000000000, 1.000000000000000000 ) ) ;
#287 = VECTOR ( 'NONE', #103, 1000.000000000000000 ) ;
#288 = EDGE_LOOP ( 'NONE', ( #37, #8 ) ) ;
#289 = COORDINATED_UNIVERSAL_TIME_OFFSET ( 9, 0, .AHEAD. ) ;
#290 = CIRCLE ( 'NONE', #163, 25.00000000000000000 ) ;
#291 = CARTESIAN_POINT ( 'NONE',  ( 0.000000000000000000, 0.000000000000000000, 15.00000000000000000 ) ) ;
#292 = VERTEX_POINT ( 'NONE', #154 ) ;
#293 = CARTESIAN_POINT ( 'NONE',  ( 0.000000000000000000, 0.000000000000000000, 0.000000000000000000 ) ) ;
#294 = ORIENTED_EDGE ( 'NONE', *, *, #148, .F. ) ;
#295 = DATE_AND_TIME ( #122, #224 ) ;
#296 = DIRECTION ( 'NONE',  ( 0.000000000000000000, 0.000000000000000000, 1.000000000000000000 ) ) ;
#297 = ORIENTED_EDGE ( 'NONE', *, *, #148, .T. ) ;
#298 = DIRECTION ( 'NONE',  ( 1.000000000000000000, 0.000000000000000000, 0.000000000000000000 ) ) ;
#299 = APPROVAL_PERSON_ORGANIZATION ( #38, #1, #270 ) ;
#300 = DATE_AND_TIME ( #236, #36 ) ;
#301 = LINE ( 'NONE', #223, #287 ) ;
#302 = CARTESIAN_POINT ( 'NONE',  ( 0.000000000000000000, 0.000000000000000000, 40.00000000000000000 ) ) ;
#303 = DIRECTION ( 'NONE',  ( 1.000000000000000000, 0.000000000000000000, 0.000000000000000000 ) ) ;
#304 = FACE_OUTER_BOUND ( 'NONE', #215, .T. ) ;
#305 = VECTOR ( 'NONE', #296, 1000.000000000000000 ) ;
#306 = CARTESIAN_POINT ( 'NONE',  ( -13.00000000000000000, 1.592040838891559095E-15, 75.00000000000000000 ) ) ;
#307 = CARTESIAN_POINT ( 'NONE',  ( 0.000000000000000000, 0.000000000000000000, 40.00000000000000000 ) ) ;
#308 = EDGE_CURVE ( 'NONE', #218, #258, #301, .T. ) ;
#309 = DIRECTION ( 'NONE',  ( 0.000000000000000000, 0.000000000000000000, -1.000000000000000000 ) ) ;
#310 = PERSON_AND_ORGANIZATION_ROLE ( 'design_owner' ) ;
#311 = ORGANIZATION ( 'UNSPECIFIED', 'UNSPECIFIED', '' ) ;
#312 = CC_DESIGN_PERSON_AND_ORGANIZATION_ASSIGNMENT ( #244, #246, ( #243 ) ) ;
#313 = VECTOR ( 'NONE', #325, 1000.000000000000000 ) ;
#314 = ADVANCED_FACE ( 'NONE', ( #78 ), #134, .F. ) ;
#315 = EDGE_LOOP ( 'NONE', ( #91, #94, #65, #63 ) ) ;
#316 = DESIGN_CONTEXT ( 'detailed design', #186, 'design' ) ;
#317 = EDGE_CURVE ( 'NONE', #96, #71, #108, .T. ) ;
#318 = COORDINATED_UNIVERSAL_TIME_OFFSET ( 9, 0, .AHEAD. ) ;
#319 = CARTESIAN_POINT ( 'NONE',  ( 8.000000000000000000, 0.000000000000000000, 40.00000000000000000 ) ) ;
#320 = VERTEX_POINT ( 'NONE', #306 ) ;
#321 = DIRECTION ( 'NONE',  ( 0.000000000000000000, 0.000000000000000000, -1.000000000000000000 ) ) ;
#322 = ORIENTED_EDGE ( 'NONE', *, *, #226, .F. ) ;
#323 = ORIENTED_EDGE ( 'NONE', *, *, #278, .T. ) ;
#324 = CARTESIAN_POINT ( 'NONE',  ( 8.000000000000000000, 0.000000000000000000, 15.00000000000000000 ) ) ;
#325 = DIRECTION ( 'NONE',  ( 0.000000000000000000, 0.000000000000000000, 1.000000000000000000 ) ) ;
#326 = CARTESIAN_POINT ( 'NONE',  ( 0.000000000000000000, 0.000000000000000000, 40.00000000000000000 ) ) ;
#327 = APPLICATION_CONTEXT ( 'configuration controlled 3d designs of mechanical parts and assemblies' ) ;
#328 =( LENGTH_UNIT ( ) NAMED_UNIT ( * ) SI_UNIT ( .MILLI., .METRE. ) );
#329 = FACE_OUTER_BOUND ( 'NONE', #264, .T. ) ;
ENDSEC;
END-ISO-10303-21;
