ISO-10303-21;
HEADER;
FILE_DESCRIPTION (( 'STEP AP203' ),
    '1' );
FILE_NAME ('bj300-16025.STEP',
    '2021-10-24T23:51:31',
    ( '' ),
    ( '' ),
    'SwSTEP 2.0',
    'SolidWorks 2020',
    '' );
FILE_SCHEMA (( 'CONFIG_CONTROL_DESIGN' ));
ENDSEC;

DATA;
#1 = EDGE_CURVE ( 'NONE', #194, #243, #209, .T. ) ;
#2 = ORIENTED_EDGE ( 'NONE', *, *, #19, .T. ) ;
#3 = ORIENTED_EDGE ( 'NONE', *, *, #231, .T. ) ;
#4 = DIRECTION ( 'NONE',  ( -1.000000000000000000, 0.000000000000000000, 0.000000000000000000 ) ) ;
#5 = ORIENTED_EDGE ( 'NONE', *, *, #262, .T. ) ;
#6 = VERTEX_POINT ( 'NONE', #173 ) ;
#7 = ORIENTED_EDGE ( 'NONE', *, *, #77, .T. ) ;
#8 = CYLINDRICAL_SURFACE ( 'NONE', #256, 9.000000000000000000 ) ;
#9 = DIRECTION ( 'NONE',  ( 1.000000000000000000, 0.000000000000000000, 0.000000000000000000 ) ) ;
#10 = EDGE_CURVE ( 'NONE', #259, #111, #66, .T. ) ;
#11 = PERSON_AND_ORGANIZATION ( #80, #320 ) ;
#12 = DATE_AND_TIME ( #73, #311 ) ;
#13 = LINE ( 'NONE', #78, #250 ) ;
#14 = CIRCLE ( 'NONE', #272, 9.000000000000000000 ) ;
#15 = DIRECTION ( 'NONE',  ( 0.000000000000000000, 0.000000000000000000, 1.000000000000000000 ) ) ;
#16 = CARTESIAN_POINT ( 'NONE',  ( 25.00000000000000000, 0.000000000000000000, 25.00000000000000000 ) ) ;
#17 = DIRECTION ( 'NONE',  ( 1.000000000000000000, 0.000000000000000000, 0.000000000000000000 ) ) ;
#18 = CARTESIAN_POINT ( 'NONE',  ( 0.000000000000000000, 0.000000000000000000, 0.000000000000000000 ) ) ;
#19 = EDGE_CURVE ( 'NONE', #57, #313, #13, .T. ) ;
#20 = COORDINATED_UNIVERSAL_TIME_OFFSET ( 9, 0, .AHEAD. ) ;
#21 = DIRECTION ( 'NONE',  ( 0.000000000000000000, 0.000000000000000000, -1.000000000000000000 ) ) ;
#22 = EDGE_CURVE ( 'NONE', #111, #259, #326, .T. ) ;
#23 = CARTESIAN_POINT ( 'NONE',  ( 0.000000000000000000, 0.000000000000000000, 8.000000000000000000 ) ) ;
#24 = CC_DESIGN_PERSON_AND_ORGANIZATION_ASSIGNMENT ( #233, #137, ( #208 ) ) ;
#25 = ORIENTED_EDGE ( 'NONE', *, *, #155, .F. ) ;
#26 = COORDINATED_UNIVERSAL_TIME_OFFSET ( 9, 0, .AHEAD. ) ;
#27 = DIRECTION ( 'NONE',  ( 0.000000000000000000, 0.000000000000000000, 1.000000000000000000 ) ) ;
#28 = ORIENTED_EDGE ( 'NONE', *, *, #72, .T. ) ;
#29 = APPROVAL_STATUS ( 'not_yet_approved' ) ;
#30 = APPROVAL_ROLE ( '' ) ;
#31 = CC_DESIGN_SECURITY_CLASSIFICATION ( #69, ( #208 ) ) ;
#32 = DIRECTION ( 'NONE',  ( 1.000000000000000000, 0.000000000000000000, 0.000000000000000000 ) ) ;
#33 = ORIENTED_EDGE ( 'NONE', *, *, #97, .T. ) ;
#34 = ADVANCED_FACE ( 'NONE', ( #102 ), #317, .F. ) ;
#35 = CARTESIAN_POINT ( 'NONE',  ( 0.000000000000000000, 0.000000000000000000, 0.000000000000000000 ) ) ;
#36 = CARTESIAN_POINT ( 'NONE',  ( 0.000000000000000000, 0.000000000000000000, 25.00000000000000000 ) ) ;
#37 = ORIENTED_EDGE ( 'NONE', *, *, #231, .F. ) ;
#38 = CYLINDRICAL_SURFACE ( 'NONE', #83, 25.00000000000000000 ) ;
#39 = DIRECTION ( 'NONE',  ( 1.000000000000000000, 0.000000000000000000, 0.000000000000000000 ) ) ;
#40 =( NAMED_UNIT ( * ) SI_UNIT ( $, .STERADIAN. ) SOLID_ANGLE_UNIT ( ) );
#41 = CIRCLE ( 'NONE', #68, 13.00000000000000000 ) ;
#42 = EDGE_CURVE ( 'NONE', #172, #115, #149, .T. ) ;
#43 = LINE ( 'NONE', #247, #228 ) ;
#44 = CARTESIAN_POINT ( 'NONE',  ( 0.000000000000000000, 0.000000000000000000, 0.000000000000000000 ) ) ;
#45 = FACE_OUTER_BOUND ( 'NONE', #219, .T. ) ;
#46 = CARTESIAN_POINT ( 'NONE',  ( 9.000000000000000000, 0.000000000000000000, 8.000000000000000000 ) ) ;
#47 = DIRECTION ( 'NONE',  ( 0.000000000000000000, 0.000000000000000000, 1.000000000000000000 ) ) ;
#48 = DIRECTION ( 'NONE',  ( 1.000000000000000000, 0.000000000000000000, 0.000000000000000000 ) ) ;
#49 = CIRCLE ( 'NONE', #90, 25.00000000000000000 ) ;
#50 = PLANE ( 'NONE',  #310 ) ;
#51 = ORIENTED_EDGE ( 'NONE', *, *, #97, .F. ) ;
#52 = PERSON_AND_ORGANIZATION ( #80, #320 ) ;
#53 = ORIENTED_EDGE ( 'NONE', *, *, #108, .T. ) ;
#54 = AXIS2_PLACEMENT_3D ( 'NONE', #258, #27, #327 ) ;
#55 = CARTESIAN_POINT ( 'NONE',  ( 9.000000000000000000, 0.000000000000000000, 0.000000000000000000 ) ) ;
#56 = FACE_OUTER_BOUND ( 'NONE', #151, .T. ) ;
#57 = VERTEX_POINT ( 'NONE', #269 ) ;
#58 = LINE ( 'NONE', #236, #160 ) ;
#59 = ORIENTED_EDGE ( 'NONE', *, *, #254, .T. ) ;
#60 = PERSON_AND_ORGANIZATION ( #80, #320 ) ;
#61 = ORIENTED_EDGE ( 'NONE', *, *, #254, .F. ) ;
#62 = APPROVAL_PERSON_ORGANIZATION ( #60, #64, #301 ) ;
#63 = FACE_OUTER_BOUND ( 'NONE', #133, .T. ) ;
#64 = APPROVAL ( #29, 'UNSPECIFIED' ) ;
#65 = DIRECTION ( 'NONE',  ( 0.000000000000000000, 0.000000000000000000, 1.000000000000000000 ) ) ;
#66 = CIRCLE ( 'NONE', #104, 9.000000000000000000 ) ;
#67 = EDGE_LOOP ( 'NONE', ( #37, #88 ) ) ;
#68 = AXIS2_PLACEMENT_3D ( 'NONE', #36, #238, #122 ) ;
#69 = SECURITY_CLASSIFICATION ( '', '', #87 ) ;
#70 = CARTESIAN_POINT ( 'NONE',  ( 0.000000000000000000, 0.000000000000000000, 40.00000000000000000 ) ) ;
#71 = ORIENTED_EDGE ( 'NONE', *, *, #131, .T. ) ;
#72 = EDGE_CURVE ( 'NONE', #6, #282, #14, .T. ) ;
#73 = CALENDAR_DATE ( 2021, 25, 10 ) ;
#74 = CARTESIAN_POINT ( 'NONE',  ( -13.00000000000000000, 1.592040838891559095E-15, 8.000000000000000000 ) ) ;
#75 = CARTESIAN_POINT ( 'NONE',  ( -25.00000000000000000, 3.061616997868383043E-15, 25.00000000000000000 ) ) ;
#76 =( GEOMETRIC_REPRESENTATION_CONTEXT ( 3 ) GLOBAL_UNCERTAINTY_ASSIGNED_CONTEXT ( ( #85 ) ) GLOBAL_UNIT_ASSIGNED_CONTEXT ( ( #128, #226, #40 ) ) REPRESENTATION_CONTEXT ( 'NONE', 'WORKASPACE' ) );
#77 = EDGE_CURVE ( 'NONE', #111, #6, #322, .T. ) ;
#78 = CARTESIAN_POINT ( 'NONE',  ( 25.00000000000000000, 0.000000000000000000, 40.00000000000000000 ) ) ;
#79 = PERSON_AND_ORGANIZATION ( #80, #320 ) ;
#80 = PERSON ( 'UNSPECIFIED', 'UNSPECIFIED', 'UNSPECIFIED', ('UNSPECIFIED'), ('UNSPECIFIED'), ('UNSPECIFIED') ) ;
#81 = DIRECTION ( 'NONE',  ( 0.000000000000000000, 0.000000000000000000, 1.000000000000000000 ) ) ;
#82 = DATE_TIME_ROLE ( 'classification_date' ) ;
#83 = AXIS2_PLACEMENT_3D ( 'NONE', #288, #176, #179 ) ;
#84 = COORDINATED_UNIVERSAL_TIME_OFFSET ( 9, 0, .AHEAD. ) ;
#85 = UNCERTAINTY_MEASURE_WITH_UNIT (LENGTH_MEASURE( 1.000000000000000082E-05 ), #128, 'distance_accuracy_value', 'NONE');
#86 = CYLINDRICAL_SURFACE ( 'NONE', #129, 9.000000000000000000 ) ;
#87 = SECURITY_CLASSIFICATION_LEVEL ( 'unclassified' ) ;
#88 = ORIENTED_EDGE ( 'NONE', *, *, #1, .F. ) ;
#89 = CIRCLE ( 'NONE', #95, 25.00000000000000000 ) ;
#90 = AXIS2_PLACEMENT_3D ( 'NONE', #18, #15, #270 ) ;
#91 = EDGE_LOOP ( 'NONE', ( #61, #162, #136, #3 ) ) ;
#92 = APPROVAL ( #99, 'UNSPECIFIED' ) ;
#93 = DIRECTION ( 'NONE',  ( 1.000000000000000000, 0.000000000000000000, 0.000000000000000000 ) ) ;
#94 = EDGE_LOOP ( 'NONE', ( #213, #166 ) ) ;
#95 = AXIS2_PLACEMENT_3D ( 'NONE', #297, #47, #124 ) ;
#96 = FACE_OUTER_BOUND ( 'NONE', #91, .T. ) ;
#97 = EDGE_CURVE ( 'NONE', #57, #163, #89, .T. ) ;
#98 = CARTESIAN_POINT ( 'NONE',  ( 0.000000000000000000, 0.000000000000000000, 8.000000000000000000 ) ) ;
#99 = APPROVAL_STATUS ( 'not_yet_approved' ) ;
#100 = AXIS2_PLACEMENT_3D ( 'NONE', #44, #248, #48 ) ;
#101 = CC_DESIGN_PERSON_AND_ORGANIZATION_ASSIGNMENT ( #11, #181, ( #165 ) ) ;
#102 = FACE_OUTER_BOUND ( 'NONE', #221, .T. ) ;
#103 = CARTESIAN_POINT ( 'NONE',  ( 0.000000000000000000, 0.000000000000000000, 25.00000000000000000 ) ) ;
#104 = AXIS2_PLACEMENT_3D ( 'NONE', #35, #187, #265 ) ;
#105 = CARTESIAN_POINT ( 'NONE',  ( -13.00000000000000000, 1.592040838891559095E-15, 25.00000000000000000 ) ) ;
#106 = ADVANCED_FACE ( 'NONE', ( #96 ), #158, .F. ) ;
#107 = CARTESIAN_POINT ( 'NONE',  ( -25.00000000000000000, 3.061616997868383043E-15, 0.000000000000000000 ) ) ;
#108 = EDGE_CURVE ( 'NONE', #313, #307, #217, .T. ) ;
#109 = AXIS2_PLACEMENT_3D ( 'NONE', #186, #274, #315 ) ;
#110 = DIRECTION ( 'NONE',  ( 0.000000000000000000, 0.000000000000000000, 1.000000000000000000 ) ) ;
#111 = VERTEX_POINT ( 'NONE', #244 ) ;
#112 = EDGE_LOOP ( 'NONE', ( #312, #7, #28, #143 ) ) ;
#113 = ORIENTED_EDGE ( 'NONE', *, *, #22, .T. ) ;
#114 = APPROVAL ( #253, 'UNSPECIFIED' ) ;
#115 = VERTEX_POINT ( 'NONE', #74 ) ;
#116 = DIRECTION ( 'NONE',  ( 1.000000000000000000, 0.000000000000000000, 0.000000000000000000 ) ) ;
#117 = PLANE ( 'NONE',  #283 ) ;
#118 = ORIENTED_EDGE ( 'NONE', *, *, #152, .F. ) ;
#119 = FACE_OUTER_BOUND ( 'NONE', #241, .T. ) ;
#120 = ORIENTED_EDGE ( 'NONE', *, *, #10, .F. ) ;
#121 = AXIS2_PLACEMENT_3D ( 'NONE', #55, #257, #190 ) ;
#122 = DIRECTION ( 'NONE',  ( 1.000000000000000000, 0.000000000000000000, 0.000000000000000000 ) ) ;
#123 = CALENDAR_DATE ( 2021, 25, 10 ) ;
#124 = DIRECTION ( 'NONE',  ( 1.000000000000000000, 0.000000000000000000, 0.000000000000000000 ) ) ;
#125 = CC_DESIGN_DATE_AND_TIME_ASSIGNMENT ( #195, #82, ( #69 ) ) ;
#126 = APPROVAL_DATE_TIME ( #12, #114 ) ;
#127 = CARTESIAN_POINT ( 'NONE',  ( 0.000000000000000000, 0.000000000000000000, 8.000000000000000000 ) ) ;
#128 =( LENGTH_UNIT ( ) NAMED_UNIT ( * ) SI_UNIT ( .MILLI., .METRE. ) );
#129 = AXIS2_PLACEMENT_3D ( 'NONE', #196, #81, #324 ) ;
#130 = CARTESIAN_POINT ( 'NONE',  ( 0.000000000000000000, 0.000000000000000000, 25.00000000000000000 ) ) ;
#131 = EDGE_CURVE ( 'NONE', #163, #307, #43, .T. ) ;
#132 = DIRECTION ( 'NONE',  ( 0.000000000000000000, 0.000000000000000000, 1.000000000000000000 ) ) ;
#133 = EDGE_LOOP ( 'NONE', ( #168, #120, #5, #146 ) ) ;
#134 = APPROVAL_PERSON_ORGANIZATION ( #293, #92, #30 ) ;
#135 = DIRECTION ( 'NONE',  ( -1.000000000000000000, 0.000000000000000000, 0.000000000000000000 ) ) ;
#136 = ORIENTED_EDGE ( 'NONE', *, *, #155, .T. ) ;
#137 = PERSON_AND_ORGANIZATION_ROLE ( 'creator' ) ;
#138 = PERSON_AND_ORGANIZATION_ROLE ( 'design_supplier' ) ;
#139 = ADVANCED_FACE ( 'NONE', ( #45, #295 ), #157, .F. ) ;
#140 = DIRECTION ( 'NONE',  ( 1.000000000000000000, 0.000000000000000000, 0.000000000000000000 ) ) ;
#141 = PERSON_AND_ORGANIZATION ( #80, #320 ) ;
#142 = CC_DESIGN_APPROVAL ( #92, ( #208 ) ) ;
#143 = ORIENTED_EDGE ( 'NONE', *, *, #262, .F. ) ;
#144 = APPROVAL_DATE_TIME ( #281, #64 ) ;
#145 = ADVANCED_FACE ( 'NONE', ( #56 ), #277, .T. ) ;
#146 = ORIENTED_EDGE ( 'NONE', *, *, #152, .T. ) ;
#147 = CARTESIAN_POINT ( 'NONE',  ( 13.00000000000000000, 0.000000000000000000, 25.00000000000000000 ) ) ;
#148 = ORIENTED_EDGE ( 'NONE', *, *, #72, .F. ) ;
#149 = CIRCLE ( 'NONE', #191, 13.00000000000000000 ) ;
#150 = CIRCLE ( 'NONE', #198, 9.000000000000000000 ) ;
#151 = EDGE_LOOP ( 'NONE', ( #189, #261, #2, #178 ) ) ;
#152 = EDGE_CURVE ( 'NONE', #282, #6, #150, .T. ) ;
#153 = VECTOR ( 'NONE', #286, 1000.000000000000000 ) ;
#154 = DIRECTION ( 'NONE',  ( 0.000000000000000000, 0.000000000000000000, 1.000000000000000000 ) ) ;
#155 = EDGE_CURVE ( 'NONE', #172, #243, #58, .T. ) ;
#156 = APPROVAL_ROLE ( '' ) ;
#157 = PLANE ( 'NONE',  #121 ) ;
#158 = CYLINDRICAL_SURFACE ( 'NONE', #275, 13.00000000000000000 ) ;
#159 = CARTESIAN_POINT ( 'NONE',  ( 9.000000000000000000, 0.000000000000000000, 40.00000000000000000 ) ) ;
#160 = VECTOR ( 'NONE', #110, 1000.000000000000000 ) ;
#161 = ADVANCED_FACE ( 'NONE', ( #230, #299 ), #50, .F. ) ;
#162 = ORIENTED_EDGE ( 'NONE', *, *, #42, .F. ) ;
#163 = VERTEX_POINT ( 'NONE', #107 ) ;
#164 = APPROVAL_PERSON_ORGANIZATION ( #79, #114, #156 ) ;
#165 = PRODUCT_DEFINITION ( 'UNKNOWN', '', #208, #169 ) ;
#166 = ORIENTED_EDGE ( 'NONE', *, *, #242, .T. ) ;
#167 = VECTOR ( 'NONE', #205, 1000.000000000000000 ) ;
#168 = ORIENTED_EDGE ( 'NONE', *, *, #77, .F. ) ;
#169 = DESIGN_CONTEXT ( 'detailed design', #240, 'design' ) ;
#170 = DIRECTION ( 'NONE',  ( 0.000000000000000000, 0.000000000000000000, 1.000000000000000000 ) ) ;
#171 = MANIFOLD_SOLID_BREP ( 'Imported1', #318 ) ;
#172 = VERTEX_POINT ( 'NONE', #212 ) ;
#173 = CARTESIAN_POINT ( 'NONE',  ( -9.000000000000000000, 1.102182119232617714E-15, 8.000000000000000000 ) ) ;
#174 = ADVANCED_FACE ( 'NONE', ( #302 ), #86, .F. ) ;
#175 = AXIS2_PLACEMENT_3D ( 'NONE', #309, #65, #93 ) ;
#176 = DIRECTION ( 'NONE',  ( 0.000000000000000000, 0.000000000000000000, 1.000000000000000000 ) ) ;
#177 = CIRCLE ( 'NONE', #267, 25.00000000000000000 ) ;
#178 = ORIENTED_EDGE ( 'NONE', *, *, #284, .F. ) ;
#179 = DIRECTION ( 'NONE',  ( 1.000000000000000000, 0.000000000000000000, 0.000000000000000000 ) ) ;
#180 = CARTESIAN_POINT ( 'NONE',  ( 0.000000000000000000, 0.000000000000000000, 8.000000000000000000 ) ) ;
#181 = PERSON_AND_ORGANIZATION_ROLE ( 'creator' ) ;
#182 = CC_DESIGN_PERSON_AND_ORGANIZATION_ASSIGNMENT ( #185, #246, ( #211 ) ) ;
#183 = CIRCLE ( 'NONE', #328, 13.00000000000000000 ) ;
#184 = DIRECTION ( 'NONE',  ( 0.000000000000000000, 0.000000000000000000, 1.000000000000000000 ) ) ;
#185 = PERSON_AND_ORGANIZATION ( #80, #320 ) ;
#186 = CARTESIAN_POINT ( 'NONE',  ( 0.000000000000000000, 0.000000000000000000, 0.000000000000000000 ) ) ;
#187 = DIRECTION ( 'NONE',  ( 0.000000000000000000, 0.000000000000000000, 1.000000000000000000 ) ) ;
#188 = DIRECTION ( 'NONE',  ( 0.000000000000000000, 0.000000000000000000, 1.000000000000000000 ) ) ;
#189 = ORIENTED_EDGE ( 'NONE', *, *, #131, .F. ) ;
#190 = DIRECTION ( 'NONE',  ( 1.000000000000000000, 0.000000000000000000, 0.000000000000000000 ) ) ;
#191 = AXIS2_PLACEMENT_3D ( 'NONE', #180, #268, #39 ) ;
#192 = COORDINATED_UNIVERSAL_TIME_OFFSET ( 9, 0, .AHEAD. ) ;
#193 = DIRECTION ( 'NONE',  ( 0.000000000000000000, 0.000000000000000000, -1.000000000000000000 ) ) ;
#194 = VERTEX_POINT ( 'NONE', #105 ) ;
#195 = DATE_AND_TIME ( #214, #305 ) ;
#196 = CARTESIAN_POINT ( 'NONE',  ( 0.000000000000000000, 0.000000000000000000, 40.00000000000000000 ) ) ;
#197 = ADVANCED_FACE ( 'NONE', ( #279, #207 ), #117, .F. ) ;
#198 = AXIS2_PLACEMENT_3D ( 'NONE', #23, #188, #140 ) ;
#199 = ADVANCED_FACE ( 'NONE', ( #119 ), #38, .T. ) ;
#200 = EDGE_LOOP ( 'NONE', ( #53, #237 ) ) ;
#201 = ORIENTED_EDGE ( 'NONE', *, *, #1, .T. ) ;
#202 = DIRECTION ( 'NONE',  ( 0.000000000000000000, 0.000000000000000000, 1.000000000000000000 ) ) ;
#203 = DIRECTION ( 'NONE',  ( 0.000000000000000000, 0.000000000000000000, 1.000000000000000000 ) ) ;
#204 = AXIS2_PLACEMENT_3D ( 'NONE', #130, #154, #291 ) ;
#205 = DIRECTION ( 'NONE',  ( 0.000000000000000000, 0.000000000000000000, 1.000000000000000000 ) ) ;
#206 = DIRECTION ( 'NONE',  ( 1.000000000000000000, 0.000000000000000000, 0.000000000000000000 ) ) ;
#207 = FACE_OUTER_BOUND ( 'NONE', #200, .T. ) ;
#208 = PRODUCT_DEFINITION_FORMATION_WITH_SPECIFIED_SOURCE ( 'ANY', '', #211, .NOT_KNOWN. ) ;
#209 = CIRCLE ( 'NONE', #175, 13.00000000000000000 ) ;
#210 = CALENDAR_DATE ( 2021, 25, 10 ) ;
#211 = PRODUCT ( 'bj300-16025', 'bj300-16025', '', ( #252 ) ) ;
#212 = CARTESIAN_POINT ( 'NONE',  ( 13.00000000000000000, 0.000000000000000000, 8.000000000000000000 ) ) ;
#213 = ORIENTED_EDGE ( 'NONE', *, *, #42, .T. ) ;
#214 = CALENDAR_DATE ( 2021, 25, 10 ) ;
#215 = ADVANCED_FACE ( 'NONE', ( #63 ), #8, .F. ) ;
#216 = CARTESIAN_POINT ( 'NONE',  ( -13.00000000000000000, 1.592040838891559095E-15, 40.00000000000000000 ) ) ;
#217 = CIRCLE ( 'NONE', #204, 25.00000000000000000 ) ;
#218 = CC_DESIGN_APPROVAL ( #114, ( #165 ) ) ;
#219 = EDGE_LOOP ( 'NONE', ( #51, #285 ) ) ;
#220 = PRODUCT_RELATED_PRODUCT_CATEGORY ( 'detail', '', ( #211 ) ) ;
#221 = EDGE_LOOP ( 'NONE', ( #264, #59, #201, #25 ) ) ;
#222 = PRODUCT_DEFINITION_SHAPE ( 'NONE', 'NONE',  #165 ) ;
#223 = LINE ( 'NONE', #216, #153 ) ;
#224 = DIRECTION ( 'NONE',  ( 0.000000000000000000, 0.000000000000000000, 1.000000000000000000 ) ) ;
#225 = DATE_TIME_ROLE ( 'creation_date' ) ;
#226 =( NAMED_UNIT ( * ) PLANE_ANGLE_UNIT ( ) SI_UNIT ( $, .RADIAN. ) );
#227 = DIRECTION ( 'NONE',  ( 1.000000000000000000, 0.000000000000000000, 0.000000000000000000 ) ) ;
#228 = VECTOR ( 'NONE', #203, 1000.000000000000000 ) ;
#229 = CARTESIAN_POINT ( 'NONE',  ( 9.000000000000000000, 0.000000000000000000, 0.000000000000000000 ) ) ;
#230 = FACE_BOUND ( 'NONE', #290, .T. ) ;
#231 = EDGE_CURVE ( 'NONE', #243, #194, #41, .T. ) ;
#232 = VECTOR ( 'NONE', #276, 1000.000000000000000 ) ;
#233 = PERSON_AND_ORGANIZATION ( #80, #320 ) ;
#234 = CC_DESIGN_APPROVAL ( #64, ( #69 ) ) ;
#235 = LOCAL_TIME ( 8, 51, 31.00000000000000000, #266 ) ;
#236 = CARTESIAN_POINT ( 'NONE',  ( 13.00000000000000000, 0.000000000000000000, 40.00000000000000000 ) ) ;
#237 = ORIENTED_EDGE ( 'NONE', *, *, #284, .T. ) ;
#238 = DIRECTION ( 'NONE',  ( 0.000000000000000000, 0.000000000000000000, 1.000000000000000000 ) ) ;
#239 = ORIENTED_EDGE ( 'NONE', *, *, #10, .T. ) ;
#240 = APPLICATION_CONTEXT ( 'configuration controlled 3d designs of mechanical parts and assemblies' ) ;
#241 = EDGE_LOOP ( 'NONE', ( #33, #71, #287, #278 ) ) ;
#242 = EDGE_CURVE ( 'NONE', #115, #172, #183, .T. ) ;
#243 = VERTEX_POINT ( 'NONE', #147 ) ;
#244 = CARTESIAN_POINT ( 'NONE',  ( -9.000000000000000000, 1.102182119232617714E-15, 0.000000000000000000 ) ) ;
#245 = ADVANCED_BREP_SHAPE_REPRESENTATION ( 'bj300-16025', ( #171, #100 ), #76 ) ;
#246 = PERSON_AND_ORGANIZATION_ROLE ( 'design_owner' ) ;
#247 = CARTESIAN_POINT ( 'NONE',  ( -25.00000000000000000, 3.061616997868383043E-15, 40.00000000000000000 ) ) ;
#248 = DIRECTION ( 'NONE',  ( 0.000000000000000000, 0.000000000000000000, 1.000000000000000000 ) ) ;
#249 = CC_DESIGN_PERSON_AND_ORGANIZATION_ASSIGNMENT ( #141, #138, ( #208 ) ) ;
#250 = VECTOR ( 'NONE', #224, 1000.000000000000000 ) ;
#251 = CARTESIAN_POINT ( 'NONE',  ( 0.000000000000000000, 0.000000000000000000, 40.00000000000000000 ) ) ;
#252 = MECHANICAL_CONTEXT ( 'NONE', #260, 'mechanical' ) ;
#253 = APPROVAL_STATUS ( 'not_yet_approved' ) ;
#254 = EDGE_CURVE ( 'NONE', #115, #194, #223, .T. ) ;
#255 = EDGE_LOOP ( 'NONE', ( #239, #113 ) ) ;
#256 = AXIS2_PLACEMENT_3D ( 'NONE', #70, #263, #116 ) ;
#257 = DIRECTION ( 'NONE',  ( 0.000000000000000000, 0.000000000000000000, 1.000000000000000000 ) ) ;
#258 = CARTESIAN_POINT ( 'NONE',  ( 0.000000000000000000, 0.000000000000000000, 40.00000000000000000 ) ) ;
#259 = VERTEX_POINT ( 'NONE', #229 ) ;
#260 = APPLICATION_CONTEXT ( 'configuration controlled 3d designs of mechanical parts and assemblies' ) ;
#261 = ORIENTED_EDGE ( 'NONE', *, *, #280, .T. ) ;
#262 = EDGE_CURVE ( 'NONE', #259, #282, #323, .T. ) ;
#263 = DIRECTION ( 'NONE',  ( 0.000000000000000000, 0.000000000000000000, 1.000000000000000000 ) ) ;
#264 = ORIENTED_EDGE ( 'NONE', *, *, #242, .F. ) ;
#265 = DIRECTION ( 'NONE',  ( 1.000000000000000000, 0.000000000000000000, 0.000000000000000000 ) ) ;
#266 = COORDINATED_UNIVERSAL_TIME_OFFSET ( 9, 0, .AHEAD. ) ;
#267 = AXIS2_PLACEMENT_3D ( 'NONE', #103, #132, #206 ) ;
#268 = DIRECTION ( 'NONE',  ( 0.000000000000000000, 0.000000000000000000, 1.000000000000000000 ) ) ;
#269 = CARTESIAN_POINT ( 'NONE',  ( 25.00000000000000000, 0.000000000000000000, 0.000000000000000000 ) ) ;
#270 = DIRECTION ( 'NONE',  ( 1.000000000000000000, 0.000000000000000000, 0.000000000000000000 ) ) ;
#271 = DIRECTION ( 'NONE',  ( 0.000000000000000000, 0.000000000000000000, 1.000000000000000000 ) ) ;
#272 = AXIS2_PLACEMENT_3D ( 'NONE', #127, #271, #227 ) ;
#273 = APPLICATION_PROTOCOL_DEFINITION ( 'international standard', 'config_control_design', 1994, #260 ) ;
#274 = DIRECTION ( 'NONE',  ( 0.000000000000000000, 0.000000000000000000, 1.000000000000000000 ) ) ;
#275 = AXIS2_PLACEMENT_3D ( 'NONE', #292, #202, #9 ) ;
#276 = DIRECTION ( 'NONE',  ( 0.000000000000000000, 0.000000000000000000, 1.000000000000000000 ) ) ;
#277 = CYLINDRICAL_SURFACE ( 'NONE', #54, 25.00000000000000000 ) ;
#278 = ORIENTED_EDGE ( 'NONE', *, *, #19, .F. ) ;
#279 = FACE_BOUND ( 'NONE', #67, .T. ) ;
#280 = EDGE_CURVE ( 'NONE', #163, #57, #49, .T. ) ;
#281 = DATE_AND_TIME ( #308, #329 ) ;
#282 = VERTEX_POINT ( 'NONE', #46 ) ;
#283 = AXIS2_PLACEMENT_3D ( 'NONE', #16, #193, #4 ) ;
#284 = EDGE_CURVE ( 'NONE', #307, #313, #177, .T. ) ;
#285 = ORIENTED_EDGE ( 'NONE', *, *, #280, .F. ) ;
#286 = DIRECTION ( 'NONE',  ( 0.000000000000000000, 0.000000000000000000, 1.000000000000000000 ) ) ;
#287 = ORIENTED_EDGE ( 'NONE', *, *, #108, .F. ) ;
#288 = CARTESIAN_POINT ( 'NONE',  ( 0.000000000000000000, 0.000000000000000000, 40.00000000000000000 ) ) ;
#289 = AXIS2_PLACEMENT_3D ( 'NONE', #251, #184, #17 ) ;
#290 = EDGE_LOOP ( 'NONE', ( #118, #148 ) ) ;
#291 = DIRECTION ( 'NONE',  ( 1.000000000000000000, 0.000000000000000000, 0.000000000000000000 ) ) ;
#292 = CARTESIAN_POINT ( 'NONE',  ( 0.000000000000000000, 0.000000000000000000, 40.00000000000000000 ) ) ;
#293 = PERSON_AND_ORGANIZATION ( #80, #320 ) ;
#294 = CC_DESIGN_PERSON_AND_ORGANIZATION_ASSIGNMENT ( #52, #303, ( #69 ) ) ;
#295 = FACE_BOUND ( 'NONE', #255, .T. ) ;
#296 = CARTESIAN_POINT ( 'NONE',  ( 25.00000000000000000, 0.000000000000000000, 25.00000000000000000 ) ) ;
#297 = CARTESIAN_POINT ( 'NONE',  ( 0.000000000000000000, 0.000000000000000000, 0.000000000000000000 ) ) ;
#298 = APPLICATION_PROTOCOL_DEFINITION ( 'international standard', 'config_control_design', 1994, #240 ) ;
#299 = FACE_OUTER_BOUND ( 'NONE', #94, .T. ) ;
#300 = SHAPE_DEFINITION_REPRESENTATION ( #222, #245 ) ;
#301 = APPROVAL_ROLE ( '' ) ;
#302 = FACE_OUTER_BOUND ( 'NONE', #112, .T. ) ;
#303 = PERSON_AND_ORGANIZATION_ROLE ( 'classification_officer' ) ;
#304 = DATE_AND_TIME ( #210, #314 ) ;
#305 = LOCAL_TIME ( 8, 51, 31.00000000000000000, #84 ) ;
#306 = CARTESIAN_POINT ( 'NONE',  ( 13.00000000000000000, 0.000000000000000000, 8.000000000000000000 ) ) ;
#307 = VERTEX_POINT ( 'NONE', #75 ) ;
#308 = CALENDAR_DATE ( 2021, 25, 10 ) ;
#309 = CARTESIAN_POINT ( 'NONE',  ( 0.000000000000000000, 0.000000000000000000, 25.00000000000000000 ) ) ;
#310 = AXIS2_PLACEMENT_3D ( 'NONE', #306, #21, #135 ) ;
#311 = LOCAL_TIME ( 8, 51, 31.00000000000000000, #20 ) ;
#312 = ORIENTED_EDGE ( 'NONE', *, *, #22, .F. ) ;
#313 = VERTEX_POINT ( 'NONE', #296 ) ;
#314 = LOCAL_TIME ( 8, 51, 31.00000000000000000, #26 ) ;
#315 = DIRECTION ( 'NONE',  ( 1.000000000000000000, 0.000000000000000000, 0.000000000000000000 ) ) ;
#316 = CC_DESIGN_DATE_AND_TIME_ASSIGNMENT ( #319, #225, ( #165 ) ) ;
#317 = CYLINDRICAL_SURFACE ( 'NONE', #289, 13.00000000000000000 ) ;
#318 = CLOSED_SHELL ( 'NONE', ( #34, #199, #174, #161, #215, #139, #145, #197, #106 ) ) ;
#319 = DATE_AND_TIME ( #123, #235 ) ;
#320 = ORGANIZATION ( 'UNSPECIFIED', 'UNSPECIFIED', '' ) ;
#321 = CARTESIAN_POINT ( 'NONE',  ( -9.000000000000000000, 1.102182119232617714E-15, 40.00000000000000000 ) ) ;
#322 = LINE ( 'NONE', #321, #167 ) ;
#323 = LINE ( 'NONE', #159, #232 ) ;
#324 = DIRECTION ( 'NONE',  ( 1.000000000000000000, 0.000000000000000000, 0.000000000000000000 ) ) ;
#325 = APPROVAL_DATE_TIME ( #304, #92 ) ;
#326 = CIRCLE ( 'NONE', #109, 9.000000000000000000 ) ;
#327 = DIRECTION ( 'NONE',  ( 1.000000000000000000, 0.000000000000000000, 0.000000000000000000 ) ) ;
#328 = AXIS2_PLACEMENT_3D ( 'NONE', #98, #170, #32 ) ;
#329 = LOCAL_TIME ( 8, 51, 31.00000000000000000, #192 ) ;
ENDSEC;
END-ISO-10303-21;
