ISO-10303-21;
HEADER;
FILE_DESCRIPTION (( 'STEP AP203' ),
    '1' );
FILE_NAME ('bj401-04002.STEP',
    '2021-10-24T23:52:22',
    ( '' ),
    ( '' ),
    'SwSTEP 2.0',
    'SolidWorks 2020',
    '' );
FILE_SCHEMA (( 'CONFIG_CONTROL_DESIGN' ));
ENDSEC;

DATA;
#1 = FACE_OUTER_BOUND ( 'NONE', #44, .T. ) ;
#2 = CIRCLE ( 'NONE', #287, 5.000000000000000000 ) ;
#3 = CARTESIAN_POINT ( 'NONE',  ( 0.000000000000000000, 0.000000000000000000, 22.00000000000000000 ) ) ;
#4 = CIRCLE ( 'NONE', #129, 5.000000000000000000 ) ;
#5 = CARTESIAN_POINT ( 'NONE',  ( 0.000000000000000000, 0.000000000000000000, 0.000000000000000000 ) ) ;
#6 = FACE_OUTER_BOUND ( 'NONE', #85, .T. ) ;
#7 = CARTESIAN_POINT ( 'NONE',  ( -7.500000000000000000, 9.184850993605147944E-16, 20.00000000000000000 ) ) ;
#8 =( LENGTH_UNIT ( ) NAMED_UNIT ( * ) SI_UNIT ( .MILLI., .METRE. ) );
#9 = CIRCLE ( 'NONE', #16, 2.250000000000000000 ) ;
#10 = ORIENTED_EDGE ( 'NONE', *, *, #161, .F. ) ;
#11 = DIRECTION ( 'NONE',  ( 1.000000000000000000, 0.000000000000000000, 0.000000000000000000 ) ) ;
#12 = ORIENTED_EDGE ( 'NONE', *, *, #196, .T. ) ;
#13 = AXIS2_PLACEMENT_3D ( 'NONE', #374, #25, #148 ) ;
#14 = VERTEX_POINT ( 'NONE', #147 ) ;
#15 = DIRECTION ( 'NONE',  ( 1.000000000000000000, 0.000000000000000000, 0.000000000000000000 ) ) ;
#16 = AXIS2_PLACEMENT_3D ( 'NONE', #306, #233, #15 ) ;
#17 = ORIENTED_EDGE ( 'NONE', *, *, #26, .F. ) ;
#18 = DIRECTION ( 'NONE',  ( 0.000000000000000000, 0.000000000000000000, -1.000000000000000000 ) ) ;
#19 = ORIENTED_EDGE ( 'NONE', *, *, #290, .T. ) ;
#20 = AXIS2_PLACEMENT_3D ( 'NONE', #218, #342, #116 ) ;
#21 = FACE_OUTER_BOUND ( 'NONE', #86, .T. ) ;
#22 = CARTESIAN_POINT ( 'NONE',  ( 7.500000000000000000, 0.000000000000000000, 22.00000000000000000 ) ) ;
#23 = ORIENTED_EDGE ( 'NONE', *, *, #280, .T. ) ;
#24 = ADVANCED_FACE ( 'NONE', ( #219, #283 ), #343, .F. ) ;
#25 = DIRECTION ( 'NONE',  ( 0.000000000000000000, 0.000000000000000000, 1.000000000000000000 ) ) ;
#26 = EDGE_CURVE ( 'NONE', #272, #397, #325, .T. ) ;
#27 = FACE_BOUND ( 'NONE', #187, .T. ) ;
#28 = EDGE_LOOP ( 'NONE', ( #336, #235, #240, #403 ) ) ;
#29 = EDGE_CURVE ( 'NONE', #302, #158, #229, .T. ) ;
#30 = DIRECTION ( 'NONE',  ( 1.000000000000000000, 0.000000000000000000, 0.000000000000000000 ) ) ;
#31 = LOCAL_TIME ( 8, 52, 22.00000000000000000, #121 ) ;
#32 = ORIENTED_EDGE ( 'NONE', *, *, #127, .T. ) ;
#33 = ADVANCED_BREP_SHAPE_REPRESENTATION ( 'bj401-04002', ( #204, #65 ), #45 ) ;
#34 = DIRECTION ( 'NONE',  ( 1.000000000000000000, 0.000000000000000000, 0.000000000000000000 ) ) ;
#35 = DATE_AND_TIME ( #347, #55 ) ;
#36 = DIRECTION ( 'NONE',  ( 1.000000000000000000, 0.000000000000000000, 0.000000000000000000 ) ) ;
#37 = ADVANCED_FACE ( 'NONE', ( #1, #125 ), #289, .F. ) ;
#38 = CYLINDRICAL_SURFACE ( 'NONE', #186, 2.250000000000000000 ) ;
#39 = ADVANCED_FACE ( 'NONE', ( #70 ), #43, .F. ) ;
#40 = DIRECTION ( 'NONE',  ( 1.000000000000000000, 0.000000000000000000, 0.000000000000000000 ) ) ;
#41 = VECTOR ( 'NONE', #99, 1000.000000000000000 ) ;
#42 = APPROVAL_DATE_TIME ( #328, #154 ) ;
#43 = CYLINDRICAL_SURFACE ( 'NONE', #64, 2.250000000000000000 ) ;
#44 = EDGE_LOOP ( 'NONE', ( #396, #300 ) ) ;
#45 =( GEOMETRIC_REPRESENTATION_CONTEXT ( 3 ) GLOBAL_UNCERTAINTY_ASSIGNED_CONTEXT ( ( #341 ) ) GLOBAL_UNIT_ASSIGNED_CONTEXT ( ( #8, #103, #165 ) ) REPRESENTATION_CONTEXT ( 'NONE', 'WORKASPACE' ) );
#46 = CARTESIAN_POINT ( 'NONE',  ( 0.000000000000000000, 0.000000000000000000, 15.00000000000000000 ) ) ;
#47 = EDGE_LOOP ( 'NONE', ( #329, #355, #17, #136 ) ) ;
#48 = PERSON_AND_ORGANIZATION ( #217, #261 ) ;
#49 = AXIS2_PLACEMENT_3D ( 'NONE', #5, #324, #390 ) ;
#50 = ORIENTED_EDGE ( 'NONE', *, *, #274, .T. ) ;
#51 = EDGE_LOOP ( 'NONE', ( #177, #104 ) ) ;
#52 = AXIS2_PLACEMENT_3D ( 'NONE', #312, #279, #118 ) ;
#53 = EDGE_CURVE ( 'NONE', #80, #179, #9, .T. ) ;
#54 = DIRECTION ( 'NONE',  ( 0.000000000000000000, 0.000000000000000000, 1.000000000000000000 ) ) ;
#55 = LOCAL_TIME ( 8, 52, 22.00000000000000000, #152 ) ;
#56 = CARTESIAN_POINT ( 'NONE',  ( 0.000000000000000000, 0.000000000000000000, 22.00000000000000000 ) ) ;
#57 = DIRECTION ( 'NONE',  ( 1.000000000000000000, 0.000000000000000000, 0.000000000000000000 ) ) ;
#58 = PERSON_AND_ORGANIZATION ( #217, #261 ) ;
#59 = CARTESIAN_POINT ( 'NONE',  ( -7.500000000000000000, 9.184850993605147944E-16, 0.000000000000000000 ) ) ;
#60 = EDGE_CURVE ( 'NONE', #311, #401, #138, .T. ) ;
#61 = CARTESIAN_POINT ( 'NONE',  ( 5.000000000000000000, 0.000000000000000000, -8.000000000000000000 ) ) ;
#62 = ORIENTED_EDGE ( 'NONE', *, *, #102, .F. ) ;
#63 = CC_DESIGN_DATE_AND_TIME_ASSIGNMENT ( #367, #320, ( #199 ) ) ;
#64 = AXIS2_PLACEMENT_3D ( 'NONE', #202, #354, #331 ) ;
#65 = AXIS2_PLACEMENT_3D ( 'NONE', #394, #330, #11 ) ;
#66 = CYLINDRICAL_SURFACE ( 'NONE', #252, 5.000000000000000000 ) ;
#67 = DIRECTION ( 'NONE',  ( 0.000000000000000000, 0.000000000000000000, 1.000000000000000000 ) ) ;
#68 = CIRCLE ( 'NONE', #368, 4.000000000000000000 ) ;
#69 = CALENDAR_DATE ( 2021, 25, 10 ) ;
#70 = FACE_OUTER_BOUND ( 'NONE', #28, .T. ) ;
#71 = ORIENTED_EDGE ( 'NONE', *, *, #29, .T. ) ;
#72 = AXIS2_PLACEMENT_3D ( 'NONE', #84, #119, #90 ) ;
#73 = ORIENTED_EDGE ( 'NONE', *, *, #53, .T. ) ;
#74 = CARTESIAN_POINT ( 'NONE',  ( -2.250000000000000000, 2.755455298081544285E-16, 15.00000000000000000 ) ) ;
#75 = DIRECTION ( 'NONE',  ( 0.000000000000000000, 0.000000000000000000, 1.000000000000000000 ) ) ;
#76 = CALENDAR_DATE ( 2021, 25, 10 ) ;
#77 = EDGE_LOOP ( 'NONE', ( #62, #406, #32, #110 ) ) ;
#78 = CARTESIAN_POINT ( 'NONE',  ( 0.000000000000000000, 0.000000000000000000, 20.00000000000000000 ) ) ;
#79 = APPROVAL ( #188, 'UNSPECIFIED' ) ;
#80 = VERTEX_POINT ( 'NONE', #395 ) ;
#81 = DIRECTION ( 'NONE',  ( 0.000000000000000000, 0.000000000000000000, 1.000000000000000000 ) ) ;
#82 = ORIENTED_EDGE ( 'NONE', *, *, #337, .F. ) ;
#83 = EDGE_CURVE ( 'NONE', #373, #14, #348, .T. ) ;
#84 = CARTESIAN_POINT ( 'NONE',  ( 4.000000000000000000, 0.000000000000000000, 15.00000000000000000 ) ) ;
#85 = EDGE_LOOP ( 'NONE', ( #241, #307, #318, #210 ) ) ;
#86 = EDGE_LOOP ( 'NONE', ( #151, #242, #115, #89 ) ) ;
#87 = DIRECTION ( 'NONE',  ( 1.000000000000000000, 0.000000000000000000, 0.000000000000000000 ) ) ;
#88 = CC_DESIGN_APPROVAL ( #284, ( #277 ) ) ;
#89 = ORIENTED_EDGE ( 'NONE', *, *, #280, .F. ) ;
#90 = DIRECTION ( 'NONE',  ( -1.000000000000000000, 0.000000000000000000, 0.000000000000000000 ) ) ;
#91 = ORIENTED_EDGE ( 'NONE', *, *, #127, .F. ) ;
#92 = FACE_OUTER_BOUND ( 'NONE', #77, .T. ) ;
#93 = CALENDAR_DATE ( 2021, 25, 10 ) ;
#94 = CARTESIAN_POINT ( 'NONE',  ( 2.250000000000000000, 0.000000000000000000, 15.00000000000000000 ) ) ;
#95 = DIRECTION ( 'NONE',  ( 0.000000000000000000, 0.000000000000000000, 1.000000000000000000 ) ) ;
#96 = CYLINDRICAL_SURFACE ( 'NONE', #392, 4.000000000000000000 ) ;
#97 = DIRECTION ( 'NONE',  ( 0.000000000000000000, 0.000000000000000000, 1.000000000000000000 ) ) ;
#98 = CIRCLE ( 'NONE', #49, 7.500000000000000000 ) ;
#99 = DIRECTION ( 'NONE',  ( 0.000000000000000000, 0.000000000000000000, 1.000000000000000000 ) ) ;
#100 = APPLICATION_PROTOCOL_DEFINITION ( 'international standard', 'config_control_design', 1994, #155 ) ;
#101 = VECTOR ( 'NONE', #81, 1000.000000000000000 ) ;
#102 = EDGE_CURVE ( 'NONE', #14, #373, #68, .T. ) ;
#103 =( NAMED_UNIT ( * ) PLANE_ANGLE_UNIT ( ) SI_UNIT ( $, .RADIAN. ) );
#104 = ORIENTED_EDGE ( 'NONE', *, *, #175, .F. ) ;
#105 = DIRECTION ( 'NONE',  ( 1.000000000000000000, 0.000000000000000000, 0.000000000000000000 ) ) ;
#106 = DIRECTION ( 'NONE',  ( 0.000000000000000000, 0.000000000000000000, 1.000000000000000000 ) ) ;
#107 = EDGE_LOOP ( 'NONE', ( #275, #50, #12, #203 ) ) ;
#108 = APPROVAL_STATUS ( 'not_yet_approved' ) ;
#109 = CC_DESIGN_PERSON_AND_ORGANIZATION_ASSIGNMENT ( #167, #159, ( #277 ) ) ;
#110 = ORIENTED_EDGE ( 'NONE', *, *, #323, .F. ) ;
#111 = VECTOR ( 'NONE', #106, 1000.000000000000000 ) ;
#112 = CARTESIAN_POINT ( 'NONE',  ( -5.000000000000000000, 6.123233995736766282E-16, 22.00000000000000000 ) ) ;
#113 = ORIENTED_EDGE ( 'NONE', *, *, #83, .F. ) ;
#114 = LINE ( 'NONE', #22, #124 ) ;
#115 = ORIENTED_EDGE ( 'NONE', *, *, #239, .F. ) ;
#116 = DIRECTION ( 'NONE',  ( 1.000000000000000000, 0.000000000000000000, 0.000000000000000000 ) ) ;
#117 = EDGE_CURVE ( 'NONE', #225, #397, #135, .T. ) ;
#118 = DIRECTION ( 'NONE',  ( 1.000000000000000000, 0.000000000000000000, 0.000000000000000000 ) ) ;
#119 = DIRECTION ( 'NONE',  ( 0.000000000000000000, 0.000000000000000000, -1.000000000000000000 ) ) ;
#120 = CARTESIAN_POINT ( 'NONE',  ( 0.000000000000000000, 0.000000000000000000, -8.000000000000000000 ) ) ;
#121 = COORDINATED_UNIVERSAL_TIME_OFFSET ( 9, 0, .AHEAD. ) ;
#122 = FACE_OUTER_BOUND ( 'NONE', #107, .T. ) ;
#123 = APPROVAL_ROLE ( '' ) ;
#124 = VECTOR ( 'NONE', #345, 1000.000000000000000 ) ;
#125 = FACE_BOUND ( 'NONE', #266, .T. ) ;
#126 = DIRECTION ( 'NONE',  ( 0.000000000000000000, 0.000000000000000000, 1.000000000000000000 ) ) ;
#127 = EDGE_CURVE ( 'NONE', #250, #310, #133, .T. ) ;
#128 = DIRECTION ( 'NONE',  ( 0.000000000000000000, 0.000000000000000000, 1.000000000000000000 ) ) ;
#129 = AXIS2_PLACEMENT_3D ( 'NONE', #297, #301, #105 ) ;
#130 = ORIENTED_EDGE ( 'NONE', *, *, #26, .T. ) ;
#131 = PERSON_AND_ORGANIZATION ( #217, #261 ) ;
#132 = VERTEX_POINT ( 'NONE', #180 ) ;
#133 = CIRCLE ( 'NONE', #195, 4.000000000000000000 ) ;
#134 = APPLICATION_PROTOCOL_DEFINITION ( 'international standard', 'config_control_design', 1994, #267 ) ;
#135 = LINE ( 'NONE', #369, #111 ) ;
#136 = ORIENTED_EDGE ( 'NONE', *, *, #196, .F. ) ;
#137 = APPROVAL_PERSON_ORGANIZATION ( #172, #154, #236 ) ;
#138 = CIRCLE ( 'NONE', #298, 2.250000000000000000 ) ;
#139 = EDGE_CURVE ( 'NONE', #132, #225, #226, .T. ) ;
#140 = ORIENTED_EDGE ( 'NONE', *, *, #365, .T. ) ;
#141 = DIRECTION ( 'NONE',  ( -1.000000000000000000, 0.000000000000000000, 0.000000000000000000 ) ) ;
#142 = ORIENTED_EDGE ( 'NONE', *, *, #205, .T. ) ;
#143 = AXIS2_PLACEMENT_3D ( 'NONE', #56, #54, #372 ) ;
#144 = VECTOR ( 'NONE', #349, 1000.000000000000000 ) ;
#145 = CYLINDRICAL_SURFACE ( 'NONE', #197, 5.000000000000000000 ) ;
#146 = PRODUCT_RELATED_PRODUCT_CATEGORY ( 'detail', '', ( #381 ) ) ;
#147 = CARTESIAN_POINT ( 'NONE',  ( -4.000000000000000000, 4.898587196589412829E-16, 15.00000000000000000 ) ) ;
#148 = DIRECTION ( 'NONE',  ( 1.000000000000000000, 0.000000000000000000, 0.000000000000000000 ) ) ;
#149 = DIRECTION ( 'NONE',  ( 1.000000000000000000, 0.000000000000000000, 0.000000000000000000 ) ) ;
#150 = FACE_OUTER_BOUND ( 'NONE', #380, .T. ) ;
#151 = ORIENTED_EDGE ( 'NONE', *, *, #387, .T. ) ;
#152 = COORDINATED_UNIVERSAL_TIME_OFFSET ( 9, 0, .AHEAD. ) ;
#153 = AXIS2_PLACEMENT_3D ( 'NONE', #185, #388, #160 ) ;
#154 = APPROVAL ( #269, 'UNSPECIFIED' ) ;
#155 = APPLICATION_CONTEXT ( 'configuration controlled 3d designs of mechanical parts and assemblies' ) ;
#156 = LINE ( 'NONE', #288, #171 ) ;
#157 = CIRCLE ( 'NONE', #214, 7.500000000000000000 ) ;
#158 = VERTEX_POINT ( 'NONE', #61 ) ;
#159 = PERSON_AND_ORGANIZATION_ROLE ( 'design_supplier' ) ;
#160 = DIRECTION ( 'NONE',  ( 1.000000000000000000, 0.000000000000000000, 0.000000000000000000 ) ) ;
#161 = EDGE_CURVE ( 'NONE', #270, #216, #386, .T. ) ;
#162 = LINE ( 'NONE', #295, #144 ) ;
#163 = CARTESIAN_POINT ( 'NONE',  ( 0.000000000000000000, 0.000000000000000000, 22.00000000000000000 ) ) ;
#164 = CARTESIAN_POINT ( 'NONE',  ( -5.000000000000000000, 6.123233995736766282E-16, 0.000000000000000000 ) ) ;
#165 =( NAMED_UNIT ( * ) SI_UNIT ( $, .STERADIAN. ) SOLID_ANGLE_UNIT ( ) );
#166 = PRODUCT_DEFINITION_SHAPE ( 'NONE', 'NONE',  #257 ) ;
#167 = PERSON_AND_ORGANIZATION ( #217, #261 ) ;
#168 = DIRECTION ( 'NONE',  ( 1.000000000000000000, 0.000000000000000000, 0.000000000000000000 ) ) ;
#169 = EDGE_LOOP ( 'NONE', ( #82, #113, #338, #19 ) ) ;
#170 = AXIS2_PLACEMENT_3D ( 'NONE', #120, #255, #384 ) ;
#171 = VECTOR ( 'NONE', #126, 1000.000000000000000 ) ;
#172 = PERSON_AND_ORGANIZATION ( #217, #261 ) ;
#173 = ADVANCED_FACE ( 'NONE', ( #245 ), #382, .F. ) ;
#174 = ORIENTED_EDGE ( 'NONE', *, *, #139, .F. ) ;
#175 = EDGE_CURVE ( 'NONE', #401, #311, #327, .T. ) ;
#176 = PERSON_AND_ORGANIZATION_ROLE ( 'creator' ) ;
#177 = ORIENTED_EDGE ( 'NONE', *, *, #60, .F. ) ;
#178 = DIRECTION ( 'NONE',  ( 0.000000000000000000, 0.000000000000000000, 1.000000000000000000 ) ) ;
#179 = VERTEX_POINT ( 'NONE', #313 ) ;
#180 = CARTESIAN_POINT ( 'NONE',  ( 7.500000000000000000, 0.000000000000000000, 0.000000000000000000 ) ) ;
#181 = ORIENTED_EDGE ( 'NONE', *, *, #290, .F. ) ;
#182 = CARTESIAN_POINT ( 'NONE',  ( 0.000000000000000000, 0.000000000000000000, 20.00000000000000000 ) ) ;
#183 = SECURITY_CLASSIFICATION_LEVEL ( 'unclassified' ) ;
#184 = DIRECTION ( 'NONE',  ( 0.000000000000000000, 0.000000000000000000, 1.000000000000000000 ) ) ;
#185 = CARTESIAN_POINT ( 'NONE',  ( 0.000000000000000000, 0.000000000000000000, 22.00000000000000000 ) ) ;
#186 = AXIS2_PLACEMENT_3D ( 'NONE', #163, #97, #36 ) ;
#187 = EDGE_LOOP ( 'NONE', ( #181, #91 ) ) ;
#188 = APPROVAL_STATUS ( 'not_yet_approved' ) ;
#189 = APPROVAL_PERSON_ORGANIZATION ( #58, #79, #123 ) ;
#190 = ADVANCED_FACE ( 'NONE', ( #273, #215 ), #405, .F. ) ;
#191 = CLOSED_SHELL ( 'NONE', ( #207, #268, #39, #379, #243, #173, #190, #296, #37, #326, #24, #308 ) ) ;
#192 = PERSON_AND_ORGANIZATION_ROLE ( 'classification_officer' ) ;
#193 = DIRECTION ( 'NONE',  ( 1.000000000000000000, 0.000000000000000000, 0.000000000000000000 ) ) ;
#194 = DIRECTION ( 'NONE',  ( 0.000000000000000000, 0.000000000000000000, 1.000000000000000000 ) ) ;
#195 = AXIS2_PLACEMENT_3D ( 'NONE', #78, #128, #87 ) ;
#196 = EDGE_CURVE ( 'NONE', #132, #272, #114, .T. ) ;
#197 = AXIS2_PLACEMENT_3D ( 'NONE', #3, #231, #193 ) ;
#198 = CARTESIAN_POINT ( 'NONE',  ( 0.000000000000000000, 0.000000000000000000, 20.00000000000000000 ) ) ;
#199 = SECURITY_CLASSIFICATION ( '', '', #183 ) ;
#200 = CALENDAR_DATE ( 2021, 25, 10 ) ;
#201 = PERSON_AND_ORGANIZATION_ROLE ( 'creator' ) ;
#202 = CARTESIAN_POINT ( 'NONE',  ( 0.000000000000000000, 0.000000000000000000, 22.00000000000000000 ) ) ;
#203 = ORIENTED_EDGE ( 'NONE', *, *, #365, .F. ) ;
#204 = MANIFOLD_SOLID_BREP ( 'Imported1', #191 ) ;
#205 = EDGE_CURVE ( 'NONE', #179, #80, #356, .T. ) ;
#206 = PERSON_AND_ORGANIZATION_ROLE ( 'design_owner' ) ;
#207 = ADVANCED_FACE ( 'NONE', ( #340 ), #309, .T. ) ;
#208 = DIRECTION ( 'NONE',  ( 1.000000000000000000, 0.000000000000000000, 0.000000000000000000 ) ) ;
#209 = CARTESIAN_POINT ( 'NONE',  ( 0.000000000000000000, 0.000000000000000000, 15.00000000000000000 ) ) ;
#210 = ORIENTED_EDGE ( 'NONE', *, *, #60, .T. ) ;
#211 = APPROVAL_DATE_TIME ( #335, #284 ) ;
#212 = DIRECTION ( 'NONE',  ( 1.000000000000000000, 0.000000000000000000, 0.000000000000000000 ) ) ;
#213 = EDGE_LOOP ( 'NONE', ( #366, #370 ) ) ;
#214 = AXIS2_PLACEMENT_3D ( 'NONE', #198, #409, #256 ) ;
#215 = FACE_OUTER_BOUND ( 'NONE', #213, .T. ) ;
#216 = VERTEX_POINT ( 'NONE', #249 ) ;
#217 = PERSON ( 'UNSPECIFIED', 'UNSPECIFIED', 'UNSPECIFIED', ('UNSPECIFIED'), ('UNSPECIFIED'), ('UNSPECIFIED') ) ;
#218 = CARTESIAN_POINT ( 'NONE',  ( 0.000000000000000000, 0.000000000000000000, 0.000000000000000000 ) ) ;
#219 = FACE_OUTER_BOUND ( 'NONE', #265, .T. ) ;
#220 = LOCAL_TIME ( 8, 52, 22.00000000000000000, #363 ) ;
#221 = CARTESIAN_POINT ( 'NONE',  ( 0.000000000000000000, 0.000000000000000000, 0.000000000000000000 ) ) ;
#222 = CC_DESIGN_PERSON_AND_ORGANIZATION_ASSIGNMENT ( #316, #192, ( #199 ) ) ;
#223 = CARTESIAN_POINT ( 'NONE',  ( 5.000000000000000000, 0.000000000000000000, 0.000000000000000000 ) ) ;
#224 = CARTESIAN_POINT ( 'NONE',  ( 7.500000000000000000, 0.000000000000000000, 20.00000000000000000 ) ) ;
#225 = VERTEX_POINT ( 'NONE', #59 ) ;
#226 = CIRCLE ( 'NONE', #377, 7.500000000000000000 ) ;
#227 = SHAPE_DEFINITION_REPRESENTATION ( #166, #33 ) ;
#228 = CYLINDRICAL_SURFACE ( 'NONE', #153, 7.500000000000000000 ) ;
#229 = CIRCLE ( 'NONE', #170, 5.000000000000000000 ) ;
#230 = CARTESIAN_POINT ( 'NONE',  ( 0.000000000000000000, 0.000000000000000000, 22.00000000000000000 ) ) ;
#231 = DIRECTION ( 'NONE',  ( 0.000000000000000000, 0.000000000000000000, 1.000000000000000000 ) ) ;
#232 = DIRECTION ( 'NONE',  ( 0.000000000000000000, 0.000000000000000000, 1.000000000000000000 ) ) ;
#233 = DIRECTION ( 'NONE',  ( 0.000000000000000000, 0.000000000000000000, 1.000000000000000000 ) ) ;
#234 = MECHANICAL_CONTEXT ( 'NONE', #155, 'mechanical' ) ;
#235 = ORIENTED_EDGE ( 'NONE', *, *, #276, .T. ) ;
#236 = APPROVAL_ROLE ( '' ) ;
#237 = LOCAL_TIME ( 8, 52, 22.00000000000000000, #400 ) ;
#238 = APPROVAL_ROLE ( '' ) ;
#239 = EDGE_CURVE ( 'NONE', #216, #270, #2, .T. ) ;
#240 = ORIENTED_EDGE ( 'NONE', *, *, #175, .T. ) ;
#241 = ORIENTED_EDGE ( 'NONE', *, *, #276, .F. ) ;
#242 = ORIENTED_EDGE ( 'NONE', *, *, #264, .T. ) ;
#243 = ADVANCED_FACE ( 'NONE', ( #27, #150 ), #254, .F. ) ;
#244 = CARTESIAN_POINT ( 'NONE',  ( 0.000000000000000000, 0.000000000000000000, 15.00000000000000000 ) ) ;
#245 = FACE_OUTER_BOUND ( 'NONE', #169, .T. ) ;
#246 = AXIS2_PLACEMENT_3D ( 'NONE', #224, #18, #141 ) ;
#247 = CC_DESIGN_PERSON_AND_ORGANIZATION_ASSIGNMENT ( #48, #176, ( #277 ) ) ;
#248 = VECTOR ( 'NONE', #232, 1000.000000000000000 ) ;
#249 = CARTESIAN_POINT ( 'NONE',  ( 5.000000000000000000, 0.000000000000000000, 0.000000000000000000 ) ) ;
#250 = VERTEX_POINT ( 'NONE', #271 ) ;
#251 = CC_DESIGN_SECURITY_CLASSIFICATION ( #199, ( #277 ) ) ;
#252 = AXIS2_PLACEMENT_3D ( 'NONE', #322, #286, #30 ) ;
#253 = AXIS2_PLACEMENT_3D ( 'NONE', #209, #178, #208 ) ;
#254 = PLANE ( 'NONE',  #246 ) ;
#255 = DIRECTION ( 'NONE',  ( 0.000000000000000000, 0.000000000000000000, 1.000000000000000000 ) ) ;
#256 = DIRECTION ( 'NONE',  ( 1.000000000000000000, 0.000000000000000000, 0.000000000000000000 ) ) ;
#257 = PRODUCT_DEFINITION ( 'UNKNOWN', '', #277, #282 ) ;
#258 = AXIS2_PLACEMENT_3D ( 'NONE', #244, #278, #376 ) ;
#259 = CARTESIAN_POINT ( 'NONE',  ( 0.000000000000000000, 0.000000000000000000, 20.00000000000000000 ) ) ;
#260 = CARTESIAN_POINT ( 'NONE',  ( 2.250000000000000000, 0.000000000000000000, -8.000000000000000000 ) ) ;
#261 = ORGANIZATION ( 'UNSPECIFIED', 'UNSPECIFIED', '' ) ;
#262 = CARTESIAN_POINT ( 'NONE',  ( 7.500000000000000000, 0.000000000000000000, 20.00000000000000000 ) ) ;
#263 = DATE_AND_TIME ( #200, #237 ) ;
#264 = EDGE_CURVE ( 'NONE', #302, #270, #402, .T. ) ;
#265 = EDGE_LOOP ( 'NONE', ( #174, #362 ) ) ;
#266 = EDGE_LOOP ( 'NONE', ( #142, #73 ) ) ;
#267 = APPLICATION_CONTEXT ( 'configuration controlled 3d designs of mechanical parts and assemblies' ) ;
#268 = ADVANCED_FACE ( 'NONE', ( #21 ), #145, .T. ) ;
#269 = APPROVAL_STATUS ( 'not_yet_approved' ) ;
#270 = VERTEX_POINT ( 'NONE', #164 ) ;
#271 = CARTESIAN_POINT ( 'NONE',  ( -4.000000000000000000, 4.898587196589412829E-16, 20.00000000000000000 ) ) ;
#272 = VERTEX_POINT ( 'NONE', #262 ) ;
#273 = FACE_BOUND ( 'NONE', #51, .T. ) ;
#274 = EDGE_CURVE ( 'NONE', #225, #132, #98, .T. ) ;
#275 = ORIENTED_EDGE ( 'NONE', *, *, #117, .F. ) ;
#276 = EDGE_CURVE ( 'NONE', #80, #401, #391, .T. ) ;
#277 = PRODUCT_DEFINITION_FORMATION_WITH_SPECIFIED_SOURCE ( 'ANY', '', #381, .NOT_KNOWN. ) ;
#278 = DIRECTION ( 'NONE',  ( 0.000000000000000000, 0.000000000000000000, 1.000000000000000000 ) ) ;
#279 = DIRECTION ( 'NONE',  ( 0.000000000000000000, 0.000000000000000000, 1.000000000000000000 ) ) ;
#280 = EDGE_CURVE ( 'NONE', #158, #216, #321, .T. ) ;
#281 = DIRECTION ( 'NONE',  ( 0.000000000000000000, 0.000000000000000000, 1.000000000000000000 ) ) ;
#282 = DESIGN_CONTEXT ( 'detailed design', #267, 'design' ) ;
#283 = FACE_BOUND ( 'NONE', #332, .T. ) ;
#284 = APPROVAL ( #108, 'UNSPECIFIED' ) ;
#285 = CARTESIAN_POINT ( 'NONE',  ( 4.000000000000000000, 0.000000000000000000, 20.00000000000000000 ) ) ;
#286 = DIRECTION ( 'NONE',  ( 0.000000000000000000, 0.000000000000000000, 1.000000000000000000 ) ) ;
#287 = AXIS2_PLACEMENT_3D ( 'NONE', #221, #184, #315 ) ;
#288 = CARTESIAN_POINT ( 'NONE',  ( -4.000000000000000000, 4.898587196589412829E-16, 22.00000000000000000 ) ) ;
#289 = PLANE ( 'NONE',  #344 ) ;
#290 = EDGE_CURVE ( 'NONE', #310, #250, #371, .T. ) ;
#291 = CC_DESIGN_APPROVAL ( #79, ( #199 ) ) ;
#292 = APPROVAL_PERSON_ORGANIZATION ( #303, #284, #238 ) ;
#293 = DIRECTION ( 'NONE',  ( 0.000000000000000000, 0.000000000000000000, 1.000000000000000000 ) ) ;
#294 = AXIS2_PLACEMENT_3D ( 'NONE', #182, #314, #149 ) ;
#295 = CARTESIAN_POINT ( 'NONE',  ( 4.000000000000000000, 0.000000000000000000, 22.00000000000000000 ) ) ;
#296 = ADVANCED_FACE ( 'NONE', ( #6 ), #38, .F. ) ;
#297 = CARTESIAN_POINT ( 'NONE',  ( 0.000000000000000000, 0.000000000000000000, -8.000000000000000000 ) ) ;
#298 = AXIS2_PLACEMENT_3D ( 'NONE', #360, #75, #168 ) ;
#299 = CC_DESIGN_APPROVAL ( #154, ( #257 ) ) ;
#300 = ORIENTED_EDGE ( 'NONE', *, *, #29, .F. ) ;
#301 = DIRECTION ( 'NONE',  ( 0.000000000000000000, 0.000000000000000000, 1.000000000000000000 ) ) ;
#302 = VERTEX_POINT ( 'NONE', #353 ) ;
#303 = PERSON_AND_ORGANIZATION ( #217, #261 ) ;
#304 = DIRECTION ( 'NONE',  ( 1.000000000000000000, 0.000000000000000000, 0.000000000000000000 ) ) ;
#305 = AXIS2_PLACEMENT_3D ( 'NONE', #259, #194, #34 ) ;
#306 = CARTESIAN_POINT ( 'NONE',  ( 0.000000000000000000, 0.000000000000000000, -8.000000000000000000 ) ) ;
#307 = ORIENTED_EDGE ( 'NONE', *, *, #205, .F. ) ;
#308 = ADVANCED_FACE ( 'NONE', ( #122 ), #228, .T. ) ;
#309 = CYLINDRICAL_SURFACE ( 'NONE', #52, 7.500000000000000000 ) ;
#310 = VERTEX_POINT ( 'NONE', #285 ) ;
#311 = VERTEX_POINT ( 'NONE', #94 ) ;
#312 = CARTESIAN_POINT ( 'NONE',  ( 0.000000000000000000, 0.000000000000000000, 22.00000000000000000 ) ) ;
#313 = CARTESIAN_POINT ( 'NONE',  ( 2.250000000000000000, 0.000000000000000000, -8.000000000000000000 ) ) ;
#314 = DIRECTION ( 'NONE',  ( 0.000000000000000000, 0.000000000000000000, 1.000000000000000000 ) ) ;
#315 = DIRECTION ( 'NONE',  ( 1.000000000000000000, 0.000000000000000000, 0.000000000000000000 ) ) ;
#316 = PERSON_AND_ORGANIZATION ( #217, #261 ) ;
#317 = FACE_OUTER_BOUND ( 'NONE', #375, .T. ) ;
#318 = ORIENTED_EDGE ( 'NONE', *, *, #350, .T. ) ;
#319 = APPROVAL_DATE_TIME ( #35, #79 ) ;
#320 = DATE_TIME_ROLE ( 'classification_date' ) ;
#321 = LINE ( 'NONE', #351, #248 ) ;
#322 = CARTESIAN_POINT ( 'NONE',  ( 0.000000000000000000, 0.000000000000000000, 22.00000000000000000 ) ) ;
#323 = EDGE_CURVE ( 'NONE', #373, #310, #162, .T. ) ;
#324 = DIRECTION ( 'NONE',  ( 0.000000000000000000, 0.000000000000000000, 1.000000000000000000 ) ) ;
#325 = CIRCLE ( 'NONE', #294, 7.500000000000000000 ) ;
#326 = ADVANCED_FACE ( 'NONE', ( #317 ), #66, .T. ) ;
#327 = CIRCLE ( 'NONE', #258, 2.250000000000000000 ) ;
#328 = DATE_AND_TIME ( #69, #399 ) ;
#329 = ORIENTED_EDGE ( 'NONE', *, *, #139, .T. ) ;
#330 = DIRECTION ( 'NONE',  ( 0.000000000000000000, 0.000000000000000000, 1.000000000000000000 ) ) ;
#331 = DIRECTION ( 'NONE',  ( 1.000000000000000000, 0.000000000000000000, 0.000000000000000000 ) ) ;
#332 = EDGE_LOOP ( 'NONE', ( #334, #378 ) ) ;
#333 = DIRECTION ( 'NONE',  ( 0.000000000000000000, 0.000000000000000000, 1.000000000000000000 ) ) ;
#334 = ORIENTED_EDGE ( 'NONE', *, *, #239, .T. ) ;
#335 = DATE_AND_TIME ( #76, #220 ) ;
#336 = ORIENTED_EDGE ( 'NONE', *, *, #53, .F. ) ;
#337 = EDGE_CURVE ( 'NONE', #14, #250, #156, .T. ) ;
#338 = ORIENTED_EDGE ( 'NONE', *, *, #323, .T. ) ;
#339 = VECTOR ( 'NONE', #67, 1000.000000000000000 ) ;
#340 = FACE_OUTER_BOUND ( 'NONE', #47, .T. ) ;
#341 = UNCERTAINTY_MEASURE_WITH_UNIT (LENGTH_MEASURE( 1.000000000000000082E-05 ), #8, 'distance_accuracy_value', 'NONE');
#342 = DIRECTION ( 'NONE',  ( 0.000000000000000000, 0.000000000000000000, 1.000000000000000000 ) ) ;
#343 = PLANE ( 'NONE',  #361 ) ;
#344 = AXIS2_PLACEMENT_3D ( 'NONE', #260, #95, #212 ) ;
#345 = DIRECTION ( 'NONE',  ( 0.000000000000000000, 0.000000000000000000, 1.000000000000000000 ) ) ;
#346 = CARTESIAN_POINT ( 'NONE',  ( -2.250000000000000000, 2.755455298081544285E-16, 22.00000000000000000 ) ) ;
#347 = CALENDAR_DATE ( 2021, 25, 10 ) ;
#348 = CIRCLE ( 'NONE', #253, 4.000000000000000000 ) ;
#349 = DIRECTION ( 'NONE',  ( 0.000000000000000000, 0.000000000000000000, 1.000000000000000000 ) ) ;
#350 = EDGE_CURVE ( 'NONE', #179, #311, #352, .T. ) ;
#351 = CARTESIAN_POINT ( 'NONE',  ( 5.000000000000000000, 0.000000000000000000, 22.00000000000000000 ) ) ;
#352 = LINE ( 'NONE', #389, #339 ) ;
#353 = CARTESIAN_POINT ( 'NONE',  ( -5.000000000000000000, 6.123233995736766282E-16, -8.000000000000000000 ) ) ;
#354 = DIRECTION ( 'NONE',  ( 0.000000000000000000, 0.000000000000000000, 1.000000000000000000 ) ) ;
#355 = ORIENTED_EDGE ( 'NONE', *, *, #117, .T. ) ;
#356 = CIRCLE ( 'NONE', #13, 2.250000000000000000 ) ;
#357 = PERSON_AND_ORGANIZATION ( #217, #261 ) ;
#358 = ORIENTED_EDGE ( 'NONE', *, *, #264, .F. ) ;
#359 = COORDINATED_UNIVERSAL_TIME_OFFSET ( 9, 0, .AHEAD. ) ;
#360 = CARTESIAN_POINT ( 'NONE',  ( 0.000000000000000000, 0.000000000000000000, 15.00000000000000000 ) ) ;
#361 = AXIS2_PLACEMENT_3D ( 'NONE', #223, #408, #57 ) ;
#362 = ORIENTED_EDGE ( 'NONE', *, *, #274, .F. ) ;
#363 = COORDINATED_UNIVERSAL_TIME_OFFSET ( 9, 0, .AHEAD. ) ;
#364 = CC_DESIGN_PERSON_AND_ORGANIZATION_ASSIGNMENT ( #357, #206, ( #381 ) ) ;
#365 = EDGE_CURVE ( 'NONE', #397, #272, #157, .T. ) ;
#366 = ORIENTED_EDGE ( 'NONE', *, *, #83, .T. ) ;
#367 = DATE_AND_TIME ( #93, #31 ) ;
#368 = AXIS2_PLACEMENT_3D ( 'NONE', #46, #333, #304 ) ;
#369 = CARTESIAN_POINT ( 'NONE',  ( -7.500000000000000000, 9.184850993605147944E-16, 22.00000000000000000 ) ) ;
#370 = ORIENTED_EDGE ( 'NONE', *, *, #102, .T. ) ;
#371 = CIRCLE ( 'NONE', #305, 4.000000000000000000 ) ;
#372 = DIRECTION ( 'NONE',  ( 1.000000000000000000, 0.000000000000000000, 0.000000000000000000 ) ) ;
#373 = VERTEX_POINT ( 'NONE', #385 ) ;
#374 = CARTESIAN_POINT ( 'NONE',  ( 0.000000000000000000, 0.000000000000000000, -8.000000000000000000 ) ) ;
#375 = EDGE_LOOP ( 'NONE', ( #358, #71, #23, #10 ) ) ;
#376 = DIRECTION ( 'NONE',  ( 1.000000000000000000, 0.000000000000000000, 0.000000000000000000 ) ) ;
#377 = AXIS2_PLACEMENT_3D ( 'NONE', #404, #281, #407 ) ;
#378 = ORIENTED_EDGE ( 'NONE', *, *, #161, .T. ) ;
#379 = ADVANCED_FACE ( 'NONE', ( #92 ), #96, .F. ) ;
#380 = EDGE_LOOP ( 'NONE', ( #130, #140 ) ) ;
#381 = PRODUCT ( 'bj401-04002', 'bj401-04002', '', ( #234 ) ) ;
#382 = CYLINDRICAL_SURFACE ( 'NONE', #143, 4.000000000000000000 ) ;
#383 = CC_DESIGN_PERSON_AND_ORGANIZATION_ASSIGNMENT ( #131, #201, ( #257 ) ) ;
#384 = DIRECTION ( 'NONE',  ( 1.000000000000000000, 0.000000000000000000, 0.000000000000000000 ) ) ;
#385 = CARTESIAN_POINT ( 'NONE',  ( 4.000000000000000000, 0.000000000000000000, 15.00000000000000000 ) ) ;
#386 = CIRCLE ( 'NONE', #20, 5.000000000000000000 ) ;
#387 = EDGE_CURVE ( 'NONE', #158, #302, #4, .T. ) ;
#388 = DIRECTION ( 'NONE',  ( 0.000000000000000000, 0.000000000000000000, 1.000000000000000000 ) ) ;
#389 = CARTESIAN_POINT ( 'NONE',  ( 2.250000000000000000, 0.000000000000000000, 22.00000000000000000 ) ) ;
#390 = DIRECTION ( 'NONE',  ( 1.000000000000000000, 0.000000000000000000, 0.000000000000000000 ) ) ;
#391 = LINE ( 'NONE', #346, #41 ) ;
#392 = AXIS2_PLACEMENT_3D ( 'NONE', #230, #293, #40 ) ;
#393 = DATE_TIME_ROLE ( 'creation_date' ) ;
#394 = CARTESIAN_POINT ( 'NONE',  ( 0.000000000000000000, 0.000000000000000000, 0.000000000000000000 ) ) ;
#395 = CARTESIAN_POINT ( 'NONE',  ( -2.250000000000000000, 2.755455298081544285E-16, -8.000000000000000000 ) ) ;
#396 = ORIENTED_EDGE ( 'NONE', *, *, #387, .F. ) ;
#397 = VERTEX_POINT ( 'NONE', #7 ) ;
#398 = CC_DESIGN_DATE_AND_TIME_ASSIGNMENT ( #263, #393, ( #257 ) ) ;
#399 = LOCAL_TIME ( 8, 52, 22.00000000000000000, #359 ) ;
#400 = COORDINATED_UNIVERSAL_TIME_OFFSET ( 9, 0, .AHEAD. ) ;
#401 = VERTEX_POINT ( 'NONE', #74 ) ;
#402 = LINE ( 'NONE', #112, #101 ) ;
#403 = ORIENTED_EDGE ( 'NONE', *, *, #350, .F. ) ;
#404 = CARTESIAN_POINT ( 'NONE',  ( 0.000000000000000000, 0.000000000000000000, 0.000000000000000000 ) ) ;
#405 = PLANE ( 'NONE',  #72 ) ;
#406 = ORIENTED_EDGE ( 'NONE', *, *, #337, .T. ) ;
#407 = DIRECTION ( 'NONE',  ( 1.000000000000000000, 0.000000000000000000, 0.000000000000000000 ) ) ;
#408 = DIRECTION ( 'NONE',  ( 0.000000000000000000, 0.000000000000000000, 1.000000000000000000 ) ) ;
#409 = DIRECTION ( 'NONE',  ( 0.000000000000000000, 0.000000000000000000, 1.000000000000000000 ) ) ;
ENDSEC;
END-ISO-10303-21;
