ISO-10303-21;
HEADER;
FILE_DESCRIPTION (( 'STEP AP203' ),
    '1' );
FILE_NAME ('bj623-12003.STEP',
    '2021-10-24T23:57:39',
    ( '' ),
    ( '' ),
    'SwSTEP 2.0',
    'SolidWorks 2020',
    '' );
FILE_SCHEMA (( 'CONFIG_CONTROL_DESIGN' ));
ENDSEC;

DATA;
#1 = CIRCLE ( 'NONE', #168, 6.500000000000000000 ) ;
#2 = CC_DESIGN_APPROVAL ( #69, ( #83 ) ) ;
#3 = EDGE_CURVE ( 'NONE', #98, #44, #93, .T. ) ;
#4 = DIRECTION ( 'NONE',  ( 1.000000000000000000, 0.000000000000000000, 0.000000000000000000 ) ) ;
#5 = DIRECTION ( 'NONE',  ( 0.000000000000000000, 0.000000000000000000, -1.000000000000000000 ) ) ;
#6 = CALENDAR_DATE ( 2021, 25, 10 ) ;
#7 = CARTESIAN_POINT ( 'NONE',  ( 0.000000000000000000, 0.000000000000000000, 10.00000000000000000 ) ) ;
#8 = DATE_TIME_ROLE ( 'creation_date' ) ;
#9 = LINE ( 'NONE', #28, #216 ) ;
#10 = FACE_OUTER_BOUND ( 'NONE', #128, .T. ) ;
#11 = EDGE_CURVE ( 'NONE', #241, #79, #205, .T. ) ;
#12 = ORIENTED_EDGE ( 'NONE', *, *, #71, .F. ) ;
#13 = PERSON_AND_ORGANIZATION ( #35, #92 ) ;
#14 = ORIENTED_EDGE ( 'NONE', *, *, #127, .F. ) ;
#15 = PERSON_AND_ORGANIZATION_ROLE ( 'creator' ) ;
#16 = VECTOR ( 'NONE', #55, 1000.000000000000000 ) ;
#17 = MANIFOLD_SOLID_BREP ( 'Imported1', #112 ) ;
#18 = CARTESIAN_POINT ( 'NONE',  ( 0.000000000000000000, 0.000000000000000000, 0.000000000000000000 ) ) ;
#19 = CARTESIAN_POINT ( 'NONE',  ( -6.500000000000000000, 0.000000000000000000, 0.000000000000000000 ) ) ;
#20 = ORIENTED_EDGE ( 'NONE', *, *, #116, .T. ) ;
#21 = AXIS2_PLACEMENT_3D ( 'NONE', #159, #84, #218 ) ;
#22 = DIRECTION ( 'NONE',  ( 0.000000000000000000, 0.000000000000000000, 1.000000000000000000 ) ) ;
#23 = APPROVAL ( #249, 'UNSPECIFIED' ) ;
#24 = CARTESIAN_POINT ( 'NONE',  ( 0.000000000000000000, 0.000000000000000000, 0.000000000000000000 ) ) ;
#25 = DIRECTION ( 'NONE',  ( 0.000000000000000000, 0.000000000000000000, -1.000000000000000000 ) ) ;
#26 = PRODUCT ( 'bj623-12003', 'bj623-12003', '', ( #167 ) ) ;
#27 = CYLINDRICAL_SURFACE ( 'NONE', #103, 6.500000000000000000 ) ;
#28 = CARTESIAN_POINT ( 'NONE',  ( 20.00000000000000000, 2.449293598294706513E-15, 10.00000000000000000 ) ) ;
#29 = CC_DESIGN_PERSON_AND_ORGANIZATION_ASSIGNMENT ( #13, #15, ( #83 ) ) ;
#30 = ORIENTED_EDGE ( 'NONE', *, *, #33, .F. ) ;
#31 = APPLICATION_PROTOCOL_DEFINITION ( 'international standard', 'config_control_design', 1994, #108 ) ;
#32 = CARTESIAN_POINT ( 'NONE',  ( 0.000000000000000000, 0.000000000000000000, 10.00000000000000000 ) ) ;
#33 = EDGE_CURVE ( 'NONE', #52, #191, #1, .T. ) ;
#34 = CC_DESIGN_DATE_AND_TIME_ASSIGNMENT ( #152, #219, ( #170 ) ) ;
#35 = PERSON ( 'UNSPECIFIED', 'UNSPECIFIED', 'UNSPECIFIED', ('UNSPECIFIED'), ('UNSPECIFIED'), ('UNSPECIFIED') ) ;
#36 = DIRECTION ( 'NONE',  ( 0.000000000000000000, 0.000000000000000000, 1.000000000000000000 ) ) ;
#37 = APPROVAL_DATE_TIME ( #238, #23 ) ;
#38 = ADVANCED_FACE ( 'NONE', ( #80 ), #155, .F. ) ;
#39 = CALENDAR_DATE ( 2021, 25, 10 ) ;
#40 = PRODUCT_RELATED_PRODUCT_CATEGORY ( 'detail', '', ( #26 ) ) ;
#41 = AXIS2_PLACEMENT_3D ( 'NONE', #225, #153, #68 ) ;
#42 =( GEOMETRIC_REPRESENTATION_CONTEXT ( 3 ) GLOBAL_UNCERTAINTY_ASSIGNED_CONTEXT ( ( #137 ) ) GLOBAL_UNIT_ASSIGNED_CONTEXT ( ( #132, #183, #245 ) ) REPRESENTATION_CONTEXT ( 'NONE', 'WORKASPACE' ) );
#43 = ORIENTED_EDGE ( 'NONE', *, *, #144, .F. ) ;
#44 = VERTEX_POINT ( 'NONE', #136 ) ;
#45 = CALENDAR_DATE ( 2021, 25, 10 ) ;
#46 = CC_DESIGN_APPROVAL ( #169, ( #146 ) ) ;
#47 = ORIENTED_EDGE ( 'NONE', *, *, #220, .T. ) ;
#48 = DIRECTION ( 'NONE',  ( 0.000000000000000000, 0.000000000000000000, -1.000000000000000000 ) ) ;
#49 = CARTESIAN_POINT ( 'NONE',  ( 0.000000000000000000, 0.000000000000000000, 10.00000000000000000 ) ) ;
#50 = APPROVAL_PERSON_ORGANIZATION ( #102, #69, #148 ) ;
#51 = ORIENTED_EDGE ( 'NONE', *, *, #99, .F. ) ;
#52 = VERTEX_POINT ( 'NONE', #119 ) ;
#53 = CIRCLE ( 'NONE', #237, 6.500000000000000000 ) ;
#54 = LINE ( 'NONE', #74, #16 ) ;
#55 = DIRECTION ( 'NONE',  ( 0.000000000000000000, 0.000000000000000000, -1.000000000000000000 ) ) ;
#56 = DIRECTION ( 'NONE',  ( 0.000000000000000000, 0.000000000000000000, 1.000000000000000000 ) ) ;
#57 = LOCAL_TIME ( 8, 57, 39.00000000000000000, #106 ) ;
#58 = APPLICATION_CONTEXT ( 'configuration controlled 3d designs of mechanical parts and assemblies' ) ;
#59 = AXIS2_PLACEMENT_3D ( 'NONE', #125, #56, #211 ) ;
#60 = ORIENTED_EDGE ( 'NONE', *, *, #133, .T. ) ;
#61 = VECTOR ( 'NONE', #66, 1000.000000000000000 ) ;
#62 = PERSON_AND_ORGANIZATION ( #35, #92 ) ;
#63 = CC_DESIGN_PERSON_AND_ORGANIZATION_ASSIGNMENT ( #224, #82, ( #146 ) ) ;
#64 = PERSON_AND_ORGANIZATION_ROLE ( 'design_supplier' ) ;
#65 = ORIENTED_EDGE ( 'NONE', *, *, #133, .F. ) ;
#66 = DIRECTION ( 'NONE',  ( 0.000000000000000000, 0.000000000000000000, -1.000000000000000000 ) ) ;
#67 = DIRECTION ( 'NONE',  ( 0.000000000000000000, 0.000000000000000000, 1.000000000000000000 ) ) ;
#68 = DIRECTION ( 'NONE',  ( 1.000000000000000000, 0.000000000000000000, 0.000000000000000000 ) ) ;
#69 = APPROVAL ( #179, 'UNSPECIFIED' ) ;
#70 = PLANE ( 'NONE',  #107 ) ;
#71 = EDGE_CURVE ( 'NONE', #44, #182, #54, .T. ) ;
#72 = APPROVAL_PERSON_ORGANIZATION ( #172, #23, #115 ) ;
#73 = CC_DESIGN_PERSON_AND_ORGANIZATION_ASSIGNMENT ( #157, #229, ( #26 ) ) ;
#74 = CARTESIAN_POINT ( 'NONE',  ( -20.00000000000000000, 0.000000000000000000, 10.00000000000000000 ) ) ;
#75 = ADVANCED_BREP_SHAPE_REPRESENTATION ( 'bj623-12003', ( #17, #244 ), #42 ) ;
#76 = CARTESIAN_POINT ( 'NONE',  ( 6.500000000000000000, 7.960204194457795477E-16, 10.00000000000000000 ) ) ;
#77 = ADVANCED_FACE ( 'NONE', ( #10, #142 ), #195, .T. ) ;
#78 = DIRECTION ( 'NONE',  ( 0.000000000000000000, 0.000000000000000000, -1.000000000000000000 ) ) ;
#79 = VERTEX_POINT ( 'NONE', #194 ) ;
#80 = FACE_OUTER_BOUND ( 'NONE', #213, .T. ) ;
#81 = ORIENTED_EDGE ( 'NONE', *, *, #123, .F. ) ;
#82 = PERSON_AND_ORGANIZATION_ROLE ( 'creator' ) ;
#83 = PRODUCT_DEFINITION ( 'UNKNOWN', '', #146, #187 ) ;
#84 = DIRECTION ( 'NONE',  ( 0.000000000000000000, 0.000000000000000000, 1.000000000000000000 ) ) ;
#85 = CALENDAR_DATE ( 2021, 25, 10 ) ;
#86 = DATE_AND_TIME ( #110, #130 ) ;
#87 = CARTESIAN_POINT ( 'NONE',  ( 0.000000000000000000, 0.000000000000000000, 10.00000000000000000 ) ) ;
#88 = FACE_OUTER_BOUND ( 'NONE', #177, .T. ) ;
#89 = DIRECTION ( 'NONE',  ( 1.000000000000000000, 0.000000000000000000, 0.000000000000000000 ) ) ;
#90 = DIRECTION ( 'NONE',  ( 1.000000000000000000, 0.000000000000000000, 0.000000000000000000 ) ) ;
#91 = DIRECTION ( 'NONE',  ( 0.000000000000000000, 0.000000000000000000, -1.000000000000000000 ) ) ;
#92 = ORGANIZATION ( 'UNSPECIFIED', 'UNSPECIFIED', '' ) ;
#93 = CIRCLE ( 'NONE', #150, 20.00000000000000000 ) ;
#94 = LOCAL_TIME ( 8, 57, 39.00000000000000000, #214 ) ;
#95 = APPROVAL_STATUS ( 'not_yet_approved' ) ;
#96 = ADVANCED_FACE ( 'NONE', ( #171 ), #27, .F. ) ;
#97 = AXIS2_PLACEMENT_3D ( 'NONE', #164, #109, #184 ) ;
#98 = VERTEX_POINT ( 'NONE', #122 ) ;
#99 = EDGE_CURVE ( 'NONE', #52, #79, #197, .T. ) ;
#100 = CARTESIAN_POINT ( 'NONE',  ( 0.000000000000000000, 0.000000000000000000, 10.00000000000000000 ) ) ;
#101 = ORIENTED_EDGE ( 'NONE', *, *, #201, .F. ) ;
#102 = PERSON_AND_ORGANIZATION ( #35, #92 ) ;
#103 = AXIS2_PLACEMENT_3D ( 'NONE', #7, #25, #140 ) ;
#104 = ORIENTED_EDGE ( 'NONE', *, *, #144, .T. ) ;
#105 = ORIENTED_EDGE ( 'NONE', *, *, #123, .T. ) ;
#106 = COORDINATED_UNIVERSAL_TIME_OFFSET ( 9, 0, .AHEAD. ) ;
#107 = AXIS2_PLACEMENT_3D ( 'NONE', #18, #22, #90 ) ;
#108 = APPLICATION_CONTEXT ( 'configuration controlled 3d designs of mechanical parts and assemblies' ) ;
#109 = DIRECTION ( 'NONE',  ( 0.000000000000000000, 0.000000000000000000, 1.000000000000000000 ) ) ;
#110 = CALENDAR_DATE ( 2021, 25, 10 ) ;
#111 = CIRCLE ( 'NONE', #41, 6.500000000000000000 ) ;
#112 = CLOSED_SHELL ( 'NONE', ( #96, #178, #77, #173, #162, #38 ) ) ;
#113 = COORDINATED_UNIVERSAL_TIME_OFFSET ( 9, 0, .AHEAD. ) ;
#114 = CARTESIAN_POINT ( 'NONE',  ( 0.000000000000000000, 0.000000000000000000, 10.00000000000000000 ) ) ;
#115 = APPROVAL_ROLE ( '' ) ;
#116 = EDGE_CURVE ( 'NONE', #44, #98, #236, .T. ) ;
#117 = VECTOR ( 'NONE', #5, 1000.000000000000000 ) ;
#118 = PRODUCT_DEFINITION_SHAPE ( 'NONE', 'NONE',  #83 ) ;
#119 = CARTESIAN_POINT ( 'NONE',  ( 6.500000000000000000, 7.960204194457795477E-16, 10.00000000000000000 ) ) ;
#120 = DIRECTION ( 'NONE',  ( 1.000000000000000000, 0.000000000000000000, 0.000000000000000000 ) ) ;
#121 = EDGE_LOOP ( 'NONE', ( #239, #240, #105, #12 ) ) ;
#122 = CARTESIAN_POINT ( 'NONE',  ( 20.00000000000000000, 2.449293598294706513E-15, 10.00000000000000000 ) ) ;
#123 = EDGE_CURVE ( 'NONE', #248, #182, #156, .T. ) ;
#124 = DIRECTION ( 'NONE',  ( 0.000000000000000000, 0.000000000000000000, 1.000000000000000000 ) ) ;
#125 = CARTESIAN_POINT ( 'NONE',  ( 0.000000000000000000, 0.000000000000000000, 0.000000000000000000 ) ) ;
#126 = PERSON_AND_ORGANIZATION_ROLE ( 'classification_officer' ) ;
#127 = EDGE_CURVE ( 'NONE', #98, #248, #9, .T. ) ;
#128 = EDGE_LOOP ( 'NONE', ( #20, #215 ) ) ;
#129 = DIRECTION ( 'NONE',  ( -1.000000000000000000, 0.000000000000000000, 0.000000000000000000 ) ) ;
#130 = LOCAL_TIME ( 8, 57, 39.00000000000000000, #113 ) ;
#131 = DIRECTION ( 'NONE',  ( 1.000000000000000000, 0.000000000000000000, 0.000000000000000000 ) ) ;
#132 =( LENGTH_UNIT ( ) NAMED_UNIT ( * ) SI_UNIT ( .MILLI., .METRE. ) );
#133 = EDGE_CURVE ( 'NONE', #191, #241, #223, .T. ) ;
#134 = LOCAL_TIME ( 8, 57, 39.00000000000000000, #232 ) ;
#135 = DIRECTION ( 'NONE',  ( 1.000000000000000000, 0.000000000000000000, 0.000000000000000000 ) ) ;
#136 = CARTESIAN_POINT ( 'NONE',  ( -20.00000000000000000, 0.000000000000000000, 10.00000000000000000 ) ) ;
#137 = UNCERTAINTY_MEASURE_WITH_UNIT (LENGTH_MEASURE( 1.000000000000000082E-05 ), #132, 'distance_accuracy_value', 'NONE');
#138 = CC_DESIGN_PERSON_AND_ORGANIZATION_ASSIGNMENT ( #62, #64, ( #146 ) ) ;
#139 = COORDINATED_UNIVERSAL_TIME_OFFSET ( 9, 0, .AHEAD. ) ;
#140 = DIRECTION ( 'NONE',  ( -1.000000000000000000, 0.000000000000000000, 0.000000000000000000 ) ) ;
#141 = CARTESIAN_POINT ( 'NONE',  ( -6.500000000000000000, 0.000000000000000000, 10.00000000000000000 ) ) ;
#142 = FACE_BOUND ( 'NONE', #158, .T. ) ;
#143 = ORIENTED_EDGE ( 'NONE', *, *, #99, .T. ) ;
#144 = EDGE_CURVE ( 'NONE', #79, #241, #111, .T. ) ;
#145 = CIRCLE ( 'NONE', #59, 20.00000000000000000 ) ;
#146 = PRODUCT_DEFINITION_FORMATION_WITH_SPECIFIED_SOURCE ( 'ANY', '', #26, .NOT_KNOWN. ) ;
#147 = ORIENTED_EDGE ( 'NONE', *, *, #201, .T. ) ;
#148 = APPROVAL_ROLE ( '' ) ;
#149 = ORIENTED_EDGE ( 'NONE', *, *, #220, .F. ) ;
#150 = AXIS2_PLACEMENT_3D ( 'NONE', #32, #67, #89 ) ;
#151 = SECURITY_CLASSIFICATION_LEVEL ( 'unclassified' ) ;
#152 = DATE_AND_TIME ( #85, #57 ) ;
#153 = DIRECTION ( 'NONE',  ( 0.000000000000000000, 0.000000000000000000, 1.000000000000000000 ) ) ;
#154 = FACE_BOUND ( 'NONE', #212, .T. ) ;
#155 = CYLINDRICAL_SURFACE ( 'NONE', #222, 6.500000000000000000 ) ;
#156 = CIRCLE ( 'NONE', #200, 20.00000000000000000 ) ;
#157 = PERSON_AND_ORGANIZATION ( #35, #92 ) ;
#158 = EDGE_LOOP ( 'NONE', ( #149, #30 ) ) ;
#159 = CARTESIAN_POINT ( 'NONE',  ( 0.000000000000000000, 0.000000000000000000, 10.00000000000000000 ) ) ;
#160 = APPROVAL_PERSON_ORGANIZATION ( #208, #169, #230 ) ;
#161 = ORIENTED_EDGE ( 'NONE', *, *, #116, .F. ) ;
#162 = ADVANCED_FACE ( 'NONE', ( #88 ), #165, .T. ) ;
#163 = CC_DESIGN_SECURITY_CLASSIFICATION ( #170, ( #146 ) ) ;
#164 = CARTESIAN_POINT ( 'NONE',  ( 0.000000000000000000, 0.000000000000000000, 0.000000000000000000 ) ) ;
#165 = CYLINDRICAL_SURFACE ( 'NONE', #196, 20.00000000000000000 ) ;
#166 = ORIENTED_EDGE ( 'NONE', *, *, #71, .T. ) ;
#167 = MECHANICAL_CONTEXT ( 'NONE', #108, 'mechanical' ) ;
#168 = AXIS2_PLACEMENT_3D ( 'NONE', #49, #246, #4 ) ;
#169 = APPROVAL ( #95, 'UNSPECIFIED' ) ;
#170 = SECURITY_CLASSIFICATION ( '', '', #151 ) ;
#171 = FACE_OUTER_BOUND ( 'NONE', #221, .T. ) ;
#172 = PERSON_AND_ORGANIZATION ( #35, #92 ) ;
#173 = ADVANCED_FACE ( 'NONE', ( #185, #154 ), #70, .F. ) ;
#174 = DATE_AND_TIME ( #39, #193 ) ;
#175 = EDGE_LOOP ( 'NONE', ( #101, #81 ) ) ;
#176 = DIRECTION ( 'NONE',  ( 0.000000000000000000, 0.000000000000000000, 1.000000000000000000 ) ) ;
#177 = EDGE_LOOP ( 'NONE', ( #14, #161, #166, #147 ) ) ;
#178 = ADVANCED_FACE ( 'NONE', ( #247 ), #226, .T. ) ;
#179 = APPROVAL_STATUS ( 'not_yet_approved' ) ;
#180 = ORIENTED_EDGE ( 'NONE', *, *, #33, .T. ) ;
#181 = APPROVAL_DATE_TIME ( #199, #69 ) ;
#182 = VERTEX_POINT ( 'NONE', #203 ) ;
#183 =( NAMED_UNIT ( * ) PLANE_ANGLE_UNIT ( ) SI_UNIT ( $, .RADIAN. ) );
#184 = DIRECTION ( 'NONE',  ( 1.000000000000000000, 0.000000000000000000, 0.000000000000000000 ) ) ;
#185 = FACE_OUTER_BOUND ( 'NONE', #175, .T. ) ;
#186 = APPROVAL_DATE_TIME ( #86, #169 ) ;
#187 = DESIGN_CONTEXT ( 'detailed design', #58, 'design' ) ;
#188 = ORIENTED_EDGE ( 'NONE', *, *, #11, .F. ) ;
#189 = DIRECTION ( 'NONE',  ( 0.000000000000000000, 0.000000000000000000, -1.000000000000000000 ) ) ;
#190 = CARTESIAN_POINT ( 'NONE',  ( 0.000000000000000000, 0.000000000000000000, 10.00000000000000000 ) ) ;
#191 = VERTEX_POINT ( 'NONE', #141 ) ;
#192 = CARTESIAN_POINT ( 'NONE',  ( -6.500000000000000000, 0.000000000000000000, 10.00000000000000000 ) ) ;
#193 = LOCAL_TIME ( 8, 57, 39.00000000000000000, #139 ) ;
#194 = CARTESIAN_POINT ( 'NONE',  ( 6.500000000000000000, 7.960204194457795477E-16, 0.000000000000000000 ) ) ;
#195 = PLANE ( 'NONE',  #209 ) ;
#196 = AXIS2_PLACEMENT_3D ( 'NONE', #114, #189, #243 ) ;
#197 = LINE ( 'NONE', #76, #117 ) ;
#198 = ORIENTED_EDGE ( 'NONE', *, *, #11, .T. ) ;
#199 = DATE_AND_TIME ( #45, #94 ) ;
#200 = AXIS2_PLACEMENT_3D ( 'NONE', #242, #124, #204 ) ;
#201 = EDGE_CURVE ( 'NONE', #182, #248, #145, .T. ) ;
#202 = CARTESIAN_POINT ( 'NONE',  ( 20.00000000000000000, 2.449293598294706513E-15, 0.000000000000000000 ) ) ;
#203 = CARTESIAN_POINT ( 'NONE',  ( -20.00000000000000000, 0.000000000000000000, 0.000000000000000000 ) ) ;
#204 = DIRECTION ( 'NONE',  ( 1.000000000000000000, 0.000000000000000000, 0.000000000000000000 ) ) ;
#205 = CIRCLE ( 'NONE', #97, 6.500000000000000000 ) ;
#206 = AXIS2_PLACEMENT_3D ( 'NONE', #87, #48, #129 ) ;
#207 = APPLICATION_PROTOCOL_DEFINITION ( 'international standard', 'config_control_design', 1994, #58 ) ;
#208 = PERSON_AND_ORGANIZATION ( #35, #92 ) ;
#209 = AXIS2_PLACEMENT_3D ( 'NONE', #210, #233, #120 ) ;
#210 = CARTESIAN_POINT ( 'NONE',  ( 0.000000000000000000, 0.000000000000000000, 10.00000000000000000 ) ) ;
#211 = DIRECTION ( 'NONE',  ( 1.000000000000000000, 0.000000000000000000, 0.000000000000000000 ) ) ;
#212 = EDGE_LOOP ( 'NONE', ( #198, #104 ) ) ;
#213 = EDGE_LOOP ( 'NONE', ( #51, #180, #60, #43 ) ) ;
#214 = COORDINATED_UNIVERSAL_TIME_OFFSET ( 9, 0, .AHEAD. ) ;
#215 = ORIENTED_EDGE ( 'NONE', *, *, #3, .T. ) ;
#216 = VECTOR ( 'NONE', #78, 1000.000000000000000 ) ;
#217 = PERSON_AND_ORGANIZATION ( #35, #92 ) ;
#218 = DIRECTION ( 'NONE',  ( 1.000000000000000000, 0.000000000000000000, 0.000000000000000000 ) ) ;
#219 = DATE_TIME_ROLE ( 'classification_date' ) ;
#220 = EDGE_CURVE ( 'NONE', #191, #52, #53, .T. ) ;
#221 = EDGE_LOOP ( 'NONE', ( #47, #143, #188, #65 ) ) ;
#222 = AXIS2_PLACEMENT_3D ( 'NONE', #190, #91, #231 ) ;
#223 = LINE ( 'NONE', #192, #61 ) ;
#224 = PERSON_AND_ORGANIZATION ( #35, #92 ) ;
#225 = CARTESIAN_POINT ( 'NONE',  ( 0.000000000000000000, 0.000000000000000000, 0.000000000000000000 ) ) ;
#226 = CYLINDRICAL_SURFACE ( 'NONE', #206, 20.00000000000000000 ) ;
#227 = CC_DESIGN_APPROVAL ( #23, ( #170 ) ) ;
#228 = CC_DESIGN_PERSON_AND_ORGANIZATION_ASSIGNMENT ( #217, #126, ( #170 ) ) ;
#229 = PERSON_AND_ORGANIZATION_ROLE ( 'design_owner' ) ;
#230 = APPROVAL_ROLE ( '' ) ;
#231 = DIRECTION ( 'NONE',  ( -1.000000000000000000, 0.000000000000000000, 0.000000000000000000 ) ) ;
#232 = COORDINATED_UNIVERSAL_TIME_OFFSET ( 9, 0, .AHEAD. ) ;
#233 = DIRECTION ( 'NONE',  ( 0.000000000000000000, 0.000000000000000000, 1.000000000000000000 ) ) ;
#234 = SHAPE_DEFINITION_REPRESENTATION ( #118, #75 ) ;
#235 = CC_DESIGN_DATE_AND_TIME_ASSIGNMENT ( #174, #8, ( #83 ) ) ;
#236 = CIRCLE ( 'NONE', #21, 20.00000000000000000 ) ;
#237 = AXIS2_PLACEMENT_3D ( 'NONE', #100, #176, #131 ) ;
#238 = DATE_AND_TIME ( #6, #134 ) ;
#239 = ORIENTED_EDGE ( 'NONE', *, *, #3, .F. ) ;
#240 = ORIENTED_EDGE ( 'NONE', *, *, #127, .T. ) ;
#241 = VERTEX_POINT ( 'NONE', #19 ) ;
#242 = CARTESIAN_POINT ( 'NONE',  ( 0.000000000000000000, 0.000000000000000000, 0.000000000000000000 ) ) ;
#243 = DIRECTION ( 'NONE',  ( -1.000000000000000000, 0.000000000000000000, 0.000000000000000000 ) ) ;
#244 = AXIS2_PLACEMENT_3D ( 'NONE', #24, #36, #135 ) ;
#245 =( NAMED_UNIT ( * ) SI_UNIT ( $, .STERADIAN. ) SOLID_ANGLE_UNIT ( ) );
#246 = DIRECTION ( 'NONE',  ( 0.000000000000000000, 0.000000000000000000, 1.000000000000000000 ) ) ;
#247 = FACE_OUTER_BOUND ( 'NONE', #121, .T. ) ;
#248 = VERTEX_POINT ( 'NONE', #202 ) ;
#249 = APPROVAL_STATUS ( 'not_yet_approved' ) ;
ENDSEC;
END-ISO-10303-21;
